Oops, an error
Loading. Please wait.
We have Chord Pro version of Kids In The Dark.
It's the closest thing you can get to the original song and it has interactive parts. Check out the tab »
×

Kids In The Dark tab

version 6
version 6

Whole song

Interactive

28 views 1 this week
no commentswrite comment
1 2 3 4 5
3 more votes to show rating
add to favorites
×
Save as Personal and add changes to this tab that will be seen only by you. Learn more ›
×
You can save this tab as Personal to edit and correct it or add notes. All changes will be seen only by you. Learn more »
launch autoscroll
font size
0
reset
how to read this tab
guitar tuner
edit
Autoscroll
slow
fast
+/-
esc
set tempo
stop
About this tab version
Rhythm and lead guitar of the song. Both on standard. Was this info helpful? Yes No
[Intro]
Rhythm Guitar
E|----------------|----------------|----------------|----------------|
B|----------------|----------------|----------------|----------------|
G|--6--6-----6----|----------------|----------------|--4--4-----4----|
D|--6--6-----6----|--7--7-----7----|--2--2-----2----|--4--4-----4----|
A|--4--4-----4----|--7--7-----7----|--2--2-----2----|--2--2-----2----|
E|----------------|--5--5-----5----|--0--0-----0----|----------------| x2

Lead Guitar x2
E|----------------|----------------|----------------|----------------|
B|--5--5-----5----|--5--4-----4----|----------------|----------------|
G|----------------|--------6-------|--6--6----------|--6--4-----4----|
D|----------------|----------------|-----------6----|--------7-------|
A|----------------|----------------|----------------|----------------|
E|----------------|----------------|----------------|----------------|

E|----------------|----------------|----------------|----------------|
B|----------------|----------------|----------------|----------------|
G|----------------|----------------|----------------|----------------|
D|--6--6----------|--6--4-----4----|----------------|----------------|
A|-----------6----|--------7-------|--6--6-----6----|--6h-7--9-------|
E|----------------|----------------|----------------|----------------|


[Verse]
Rhythm Guitar
E|----------------|----------------|----------------|----------------|
B|----------------|----------------|----------------|----------------|
G|--6--6-----6----|----------------|----------------|--4--4-----4----|
D|--6--6-----6----|--7--7-----7----|--2--2-----2----|--4--4-----4----|
A|--4--4-----4----|--7--7-----7----|--2--2-----2----|--2--2-----2----|
E|----------------|--5--5-----5----|--0--0-----0----|----------------| x4

E|-------|
B|-------|
G|-------|
D|--7----|
A|--7----|
E|--5----|

Lead Guitar x4
E|----------------|----------------|----------------|----------------|
B|--5--5-----5----|--5--4-----4----|----------------|----------------|
G|----------------|--------6-------|--6--6----------|--6--4-----4----|
D|----------------|----------------|-----------6----|--------7-------|
A|----------------|----------------|----------------|----------------|
E|----------------|----------------|----------------|----------------|

E|----------------|----------------|----------------|----------------|
B|----------------|----------------|----------------|----------------|
G|----------------|----------------|----------------|----------------|
D|--6--6----------|--6--4-----4----|----------------|----------------|
A|-----------6----|--------7-------|--6--6-----6----|--6h-7--9-------|
E|----------------|----------------|----------------|----------------|


[Chorus] 
Rhythm Guitar x4
E|----------------|----------------|----------------|----------------|
B|----------------|----------------|----------------|----------------|
G|--6--6--6--6----|--6--6--6--6----|----------------|----------------|
D|--6--6--6--6----|--6--6--6--6----|--7--7--7--7----|--7--7--7--7----|
A|--4--4--4--4----|--4--4--4--4----|--7--7--7--7----|--7--7--7--7----|
E|----------------|----------------|--5--5--5--5----|--5--5--5--5----|

E|----------------|----------------|----------------|----------------|
B|----------------|----------------|----------------|----------------|
G|----------------|----------------|--4--4--4--4----|--4--4--4--4----|
D|--2--2--2--2----|--2--2--2--2----|--4--4--4--4----|--4--4--4--4----|
A|--2--2--2--2----|--2--2--2--2----|--2--2--2--2----|--2--2--2--2----|
E|--0--0--0--0----|--0--0--0--0----|----------------|----------------|

Lead Guitar Part 1 x2
E|----------------|----------------|----------------|----------------|
B|----------------|----------------|----------------|----------------|
G|--6--6--6--6----|--6--6--6--6----|--14-14-14-14---|--14-14-14-14---|
D|----------------|----------------|----------------|----------------|
A|--4--4--4--4----|--4--4--4--4----|--12-12-12-12---|--12-12-12-12---|
E|----------------|----------------|----------------|----------------|

E|----------------|----------------|----------------|----------------|
B|----------------|----------------|----------------|----------------|
G|--9--9--9--9----|--9--9--9--9----|--4--4--4--4----|--4--4--4--4----|
D|----------------|----------------|----------------|----------------|
A|--7--7--7--7----|--7--7--7--7----|--2--2--2--2----|--2--2--2--2----|
E|----------------|----------------|----------------|----------------|

Lead Guitar Part 2 x2
E|----------------|----------------|----------------|----------------|
B|--5--5-----5----|--5--4-----4----|----------------|----------------|
G|----------------|--------6-------|--6--6----------|--6--4-----4----|
D|----------------|----------------|-----------6----|--------7-------|
A|----------------|----------------|----------------|----------------|
E|----------------|----------------|----------------|----------------|

E|----------------|----------------|----------------|----------------|
B|----------------|----------------|----------------|----------------|
G|----------------|----------------|----------------|----------------|
D|--6--6----------|--6--4-----4----|----------------|----------------|
A|-----------6----|--------7-------|--6--6-----6----|--6h-7--9-------|
E|----------------|----------------|----------------|----------------|


[Verse]
Rhythm Guitar
E|----------------|----------------|----------------|----------------|
B|----------------|----------------|----------------|----------------|
G|--6--6-----6----|----------------|----------------|--4--4-----4----|
D|--6--6-----6----|--7--7-----7----|--2--2-----2----|--4--4-----4----|
A|--4--4-----4----|--7--7-----7----|--2--2-----2----|--2--2-----2----|
E|----------------|--5--5-----5----|--0--0-----0----|----------------| x4

E|-------|
B|-------|
G|-------|
D|--7----|
A|--7----|
E|--5----|

Lead Guitar x4
E|----------------|----------------|----------------|----------------|
B|--5--5-----5----|--5--4-----4----|----------------|----------------|
G|----------------|--------6-------|--6--6----------|--6--4-----4----|
D|----------------|----------------|-----------6----|--------7-------|
A|----------------|----------------|----------------|----------------|
E|----------------|----------------|----------------|----------------|

E|----------------|----------------|----------------|----------------|
B|----------------|----------------|----------------|----------------|
G|----------------|----------------|----------------|----------------|
D|--6--6----------|--6--4-----4----|----------------|----------------|
A|-----------6----|--------7-------|--6--6-----6----|--6h-7--9-------|
E|----------------|----------------|----------------|----------------| 

[Chorus] x4
Rhythm Guitar
E|----------------|----------------|----------------|----------------|
B|----------------|----------------|----------------|----------------|
G|--6--6--6--6----|--6--6--6--6----|----------------|----------------|
D|--6--6--6--6----|--6--6--6--6----|--7--7--7--7----|--7--7--7--7----|
A|--4--4--4--4----|--4--4--4--4----|--7--7--7--7----|--7--7--7--7----|
E|----------------|----------------|--5--5--5--5----|--5--5--5--5----|

E|----------------|----------------|----------------|----------------|
B|----------------|----------------|----------------|----------------|
G|----------------|----------------|--4--4--4--4----|--4--4--4--4----|
D|--2--2--2--2----|--2--2--2--2----|--4--4--4--4----|--4--4--4--4----|
A|--2--2--2--2----|--2--2--2--2----|--2--2--2--2----|--2--2--2--2----|
E|--0--0--0--0----|--0--0--0--0----|----------------|----------------|

Lead Guitar Part 1 x2
E|----------------|----------------|----------------|----------------|
B|----------------|----------------|----------------|----------------|
G|--6--6--6--6----|--6--6--6--6----|--14-14-14-14---|--14-14-14-14---|
D|----------------|----------------|----------------|----------------|
A|--4--4--4--4----|--4--4--4--4----|--12-12-12-12---|--12-12-12-12---|
E|----------------|----------------|----------------|----------------|

E|----------------|----------------|----------------|----------------|
B|----------------|----------------|----------------|----------------|
G|--9--9--9--9----|--9--9--9--9----|--4--4--4--4----|--4--4--4--4----|
D|----------------|----------------|----------------|----------------|
A|--7--7--7--7----|--7--7--7--7----|--2--2--2--2----|--2--2--2--2----|
E|----------------|----------------|----------------|----------------|

Lead Guitar Part 2 x2
E|----------------|----------------|----------------|----------------|
B|--5--5-----5----|--5--4-----4----|----------------|----------------|
G|----------------|--------6-------|--6--6----------|--6--4-----4----|
D|----------------|----------------|-----------6----|--------7-------|
A|----------------|----------------|----------------|----------------|
E|----------------|----------------|----------------|----------------|

E|----------------|----------------|----------------|----------------|
B|----------------|----------------|----------------|----------------|
G|----------------|----------------|----------------|----------------|
D|--6--6----------|--6--4-----4----|----------------|----------------|
A|-----------6----|--------7-------|--6--6-----6----|--6h-7--9-------|
E|----------------|----------------|----------------|----------------|


[Bridge] 
Rhythm Guitar
E|----------------|----------------|----------------|----------------|
B|----------------|----------------|----------------|----------------|
G|----------------|----------------|--6--6--6--6----|--4--4--4--4----|
D|--7--7--7--7----|--2--2--2--2----|--6--6--6--6----|--4--4--4--4----|
A|--7--7--7--7----|--2--2--2--2----|--4--4--4--4-x2-|--2--2--2--2-x2-|
D|--5--5--5--5-x2-|--0--0--0--0-x2-|----------------|----------------|

E|-------|----------------|
B|-------|----------------|
G|--6----|----------------|
D|--6----|----------------|
A|--4----|----------------|
E|-------|----------------|

Lead Guitar
E|------------------|------------------|------------------|------------------|
B|------------------|------------------|------------------|------------------|
G|--14-14-14-14-----|--9--9--9--9------|--6--6--6--6------|--4--4--4--4------|
D|------------------|------------------|------------------|------------------|
A|--12-12-12-12-(x2)|--7--7--7--7-(x2)-|--4--4--4--4-(x2)-|--2--2--2--2-(x2)-|
E|------------------|------------------|------------------|------------------|

E|------------------|------------------|------------------|------------------|
B|------------------|------------------|------------------|------------------|
G|--14-14-14-14-----|--9--9--9--9------|--6--6--6--6------|--4--4--4--4------|
D|------------------|------------------|------------------|------------------|
A|--12-12-12-12-(x2)|--7--7--7--7-(x2)-|--4--4--4--4-(x2)-|--2--2--2--2------|
E|------------------|------------------|------------------|------------------|

E|----------------|-------|
B|----------------|-------|
G|--8h-9h-8h-9h---|--6----|
D|----------------|-------|
A|----------------|-------|
E|----------------|-------|


[Chorus]
Rhythm Guitar
E|----------------|----------------|----------------|----------------|
B|----------------|----------------|----------------|----------------|
G|--6--6--6--6----|--6--6--6--6----|----------------|----------------|
D|--6--6--6--6----|--6--6--6--6----|--7--7--7--7----|--7--7--7--7----|
A|--4--4--4--4----|--4--4--4--4----|--7--7--7--7----|--7--7--7--7----|
E|----------------|----------------|--5--5--5--5----|--5--5--5--5----|

E|----------------|----------------|----------------|
B|----------------|----------------|----------------|
G|----------------|----------------|--4--4--4--4----|
D|--2--2--2--2----|--2--2--2--2----|--4--4--4--4----|
A|--2--2--2--2----|--2--2--2--2----|--2--2--2--2----|
E|--0--0--0--0----|--0--0--0--0----|----------------| (pause)

Part 2 x4
E|----------------|----------------|----------------|----------------|
B|----------------|----------------|----------------|----------------|
G|--6--6--6--6----|--6--6--6--6----|----------------|----------------|
D|--6--6--6--6----|--6--6--6--6----|--7--7--7--7----|--7--7--7--7----|
A|--4--4--4--4----|--4--4--4--4----|--7--7--7--7----|--7--7--7--7----|
E|----------------|----------------|--5--5--5--5----|--5--5--5--5----|

E|----------------|----------------|----------------|----------------|
B|----------------|----------------|----------------|----------------|
G|----------------|----------------|--4--4--4--4----|--4--4--4--4----|
D|--2--2--2--2----|--2--2--2--2----|--4--4--4--4----|--4--4--4--4----|
A|--2--2--2--2----|--2--2--2--2----|--2--2--2--2----|--2--2--2--2----|
E|--0--0--0--0----|--0--0--0--0----|----------------|----------------|

Lead Guitar Part 1
E|----------------|----------------|----------------|----------------|
B|----------------|----------------|----------------|----------------|
G|--6--6--6--6----|--6--6--6--6----|--14-14-14-14---|--14-14-14-14---|
D|----------------|----------------|----------------|----------------|
A|--4--4--4--4----|--4--4--4--4----|--12-12-12-12---|--12-12-12-12---|
E|----------------|----------------|----------------|----------------|

E|----------------|----------------|----------------|
B|----------------|----------------|----------------|
G|--9--9--9--9----|--9--9--9--9----|--4--4--4--4----|
D|----------------|----------------|----------------|
A|--7--7--7--7----|--7--7--7--7----|--2--2--2--2----|
E|----------------|----------------|----------------| (pause)

Lead Guitar Part 2 x4
E|----------------|----------------|----------------|----------------|
B|--5--5-----5----|--5--4-----4----|----------------|----------------|
G|----------------|--------6-------|--6--6----------|--6--4-----4----|
D|----------------|----------------|-----------6----|--------7-------|
A|----------------|----------------|----------------|----------------|
E|----------------|----------------|----------------|----------------|

E|----------------|----------------|----------------|----------------|
B|----------------|----------------|----------------|----------------|
G|----------------|----------------|----------------|----------------|
D|--6--6----------|--6--4-----4----|----------------|----------------|
A|-----------6----|--------7-------|--6--6-----6----|--6h-7--9-------|
E|----------------|----------------|----------------|----------------|

x - dead note
h - hammer on
Suggest correction
Creating personal tab
Creating personal tab
You can edit any tab online and save it as your Personal.

You can edit, replace or remove any tab part or add personal notes – all changes will be seen only by you.

Personal tabs can be accessed anytime from any device, even offline.
Learn more »
Give kudos to tab author, rate the tab!
1 2 3 4 5
comments
print report bad tab
guest
You may want to rate the tab now too:
select rating
Wanna post a correction for this tab? Suggest correction