Oops, an error
Loading. Please wait.

Last Flight Home Tab

version 2
version 2

Whole song

1,000 views 6 this week
no commentswrite comment
1 2 3 4 5
x 3
add to favorites
launch autoscroll
font size
0
reset
how to read this tab
guitar tuner
Autoscroll
slow
fast
+/-
esc
set tempo
stop
Help us to improve Ultimate-Guitar.com Take our survey!
×
Author
Difficulty
Tuning
novice
D A D G B E
This song is in Drop D.  The other tab that was on here first was mostly right but I 
decided to add in the bridge/breakdown strumming part.  Have fun.  :)

Intro:
  ('Cause im 16...)
e----------------------------------------------------------------|
B----------------------------------------------------------------|
G----------------------------------------------------------------|
D---55555555----22222222----1010101010101010----1212121212121212-|
A---55555555----22222222----1010101010101010----1212121212121212-|
D---55555555----22222222----1010101010101010----1212121212121212-|

Verse: (3x)

e-------------------------------| e------------------------------------|
B-------------------------------| B------------------------------------|
G-------------------------------| G------------------------------------|
D---22222222----1010101010101010| D---12121212121212121212121212121212-|
A---22222222----1010101010101010| A---12121212121212121212121212121212-|
D---22222222----1010101010101010| D---12121212121212121212121212121212-|

Chorus: (2x)

e---------------------------------------------------------------------|
B---------------------------------------------------------------------|
G---------------------------------------------------------------------|
D---55555555---1212121212121212---1010101010101010---1212121212121212-|
A---55555555---1212121212121212---1010101010101010---1212121212121212-|
D---55555555---1212121212121212---1010101010101010---1212121212121212-|

Then Intro 4 times (first two have the dead notes strumming thing and then the 2 after 
that are palm muted and that is where the singing comes back in again too).

Then verse part 3 more times.

Then the Chorus.

Bridge/Breakdown:

e---------------------------------------------------------|
B---------------------------------------------------------|
G---------------------------------------------------------|
D--------5-----5------5-----5-------5-------5--5--4--5--4-|
A-----5-----5------5-----5---33-5-33-33-5-33-55-55-55-55--|
D---55-55-55-55--22-22-22-22------------------------------|
E---------------------------------------------------------|


And then eventually they come in with these chords behind that.  Just listen to the 
record for reference.

e-------------------------------|
B-------------------------------|
G-------------------------------|
D---5---2---10---12-------------|
A---5---2---10---12-------------|
D---5---2---10---12-------------|
**NOTE: As soon as these ^^ chords come up, play them all 3 times through.

Then, before last chorus:
---------------|
---------------|
---------------|
-5~----12~-----|
-5~----12~-----|
-5~----12~-----|
Then play Chorus once more but strumming the 555's and the 121212's only once and doing 
the full strumming pattern starting at the 101010's.

Then play the Intro 4 more times and end on:
----------------|
----------------|
----------------|
-5~-------------|
-5~-------------|
-5~-------------|
Suggest correction
Give kudos to tab author, rate the tab!
1 2 3 4 5
comments
print report bad tab
guest
You may want to rate the tab now too:
select rating
Wanna post a correction for this tab? Suggest correction