Oops, an error
Loading. Please wait.

Last Young Renegade tab

version 1
version 1

Whole song

4,633 views 36 this week
1 commentread comment
1 2 3 4 5
x 6
add to favorites
×
Save as Personal and add changes to this tab that will be seen only by you. Learn more ›
×
You can save this tab as Personal to edit and correct it or add notes. All changes will be seen only by you. Learn more »
launch autoscroll
font size
0
reset
how to read this tab
guitar tuner
edit
Autoscroll
slow
fast
+/-
esc
set tempo
stop
About this tab version
First version of the tab, suggestions and improvements welcome. Was this info helpful? Yes No
The tab for All Time Low's new single "Last Young Renengade".
(Disclaimer: I'm not entirely sure on the chords, but it is in the key of D Major,
so I tried to pick chords that sounded best)

e|-----------------|-----------------|-----------------|---------------|
B|---10---8---7----|---10---8---7----|---10---8---7----|--------7------|
G|-7----7---7---7--|-7----7---7---7--|-7----7---7---7--|-9----9---9-7--|
D|-----------------|-----------------|-----------------|---------------|
A|-----------------|-----------------|-----------------|---------------|
D|-----------------|-----------------|-----------------|---------------|
(Alternatively, you could play the 10 on the B as a 5 on the e)
It basically just repeats this throughout the song - everywhere except the chorus

[Verse 1] (maybe) (plam muting):
    D     A     D     G     D     A     G     A
e|--------------------------------------------------|
B|--------------------------------------------------|
G|--7-----------7-----------7-----------------------|
D|--7-x8--7-----7-x8--5-----7-x8--7-----5-----7-----|
A|--5-----7-x8--5-----5-x8--5-----7-x8--5-x8--7-x8--|
D|--------7-----------5-----------7-----5-----7-----|

[Prechorus]
    D     G     D     A     D     G     G     A
e|--------------------------------------------------|
B|--------------------------------------------------|
G|--7-----------7-----------7-----------------------|
D|--7-x8--5-----7-x8--7-----7-x8--5-----5-----7-----|
A|--5-----5-x8--5-----7-x8--5-----5-x8--5-x8--7-x8--|
D|--------5-----------7-----------5-----5-----7-----|

[Chorus 1]
     D        A  G                  Bm      A/Ab  A
e|-------------------------------|-------------------------------|
B|-------------------------------|-------------------------------|
G|---7-7-7-7---------------------|-------------------------------|
D|---7-7-7-7--7--5-5-5-5-5-5-5-5-|--9-9-9-9-----5-5-5-5-5-5-5-5--|
A|---5-5-5-5--7--5-5-5-5-5-5-5-5-|--9-9-9-9--5--5-5-5-5-5-5-5-5--|
D|------------7--5-5-5-5-5-5-5-5-|--9-9-9-9--4--5-5-5-5-5-5-5-5--|

[Verse 2]
    D     A     D     G     D     A     G     A
e|--------------------------------------------------|
B|--------------------------------------------------|
G|--7-----------7-----------7-----------------------|
D|--7-x8--7-----7-x8--5-----7-x8--7-----5-----7-----|
A|--5-----7-x8--5-----5-x8--5-----7-x8--5-x8--7-x8--|
D|--------7-----------5-----------7-----5-----7-----|

[Prechorus]
    D     G     D     A     D     G     G     A
e|--------------------------------------------------|
B|--------------------------------------------------|
G|--7-----------7-----------7-----------------------|
D|--7-x8--5-----7-x8--7-----7-x8--5-----5-----7-----|
A|--5-----5-x8--5-----7-x8--5-----5-x8--5-x8--7-x8--|
D|--------5-----------7-----------5-----5-----7-----|


[Chorus 2
     D        A  G                  Bm      A/Ab  A
e|-------------------------------|-------------------------------|
B|-------------------------------|-------------------------------|
G|---7-7-7-7---------------------|-------------------------------|
D|---7-7-7-7--7--5-5-5-5-5-5-5-5-|--9-9-9-9-----5-5-5-5-5-5-5-5--|
A|---5-5-5-5--7--5-5-5-5-5-5-5-5-|--9-9-9-9--5--5-5-5-5-5-5-5-5--|
D|------------7--5-5-5-5-5-5-5-5-|--9-9-9-9--4--5-5-5-5-5-5-5-5--|

     D        A  G                  Bm      A/Ab  A
e|-------------------------------|-------------------------------|
B|-------------------------------|-------------------------------|
G|---7-7-7-7---------------------|-------------------------------|
D|---7-7-7-7--7--5-5-5-5-5-5-5-5-|--9-9-9-9-----5-5-5-5-5-5-5-5--|
A|---5-5-5-5--7--5-5-5-5-5-5-5-5-|--9-9-9-9--5--5-5-5-5-5-5-5-5--|
D|------------7--5-5-5-5-5-5-5-5-|--9-9-9-9--4--5-5-5-5-5-5-5-5--|

[Bridge]
    D     A     Bm    A     D     A     Bm    A
e|--------------------------------------------------|
B|--------------------------------------------------|
G|--7-----------------------7-----------------------|
D|--7-x8--7-----9-----7-----7-x8--7-----9-----7-----|
A|--5-----7-x8--9-x8--7-x8--5-----7-x8--9-x8--7-x8--|
D|--------7-----9-----7-----------7-----9-----7-----|

[Chorus 3]
                 G                  Bm      A/Ab  A
e|-------------------------------|-------------------------------|
B|-------------------------------|-------------------------------|
G|-------------------------------|-------------------------------|
D|---------------5-5-5-5-5-5-5-5-|--9-9-9-9-----5-5-5-5-5-5-5-5--|
D|---------------5-5-5-5-5-5-5-5-|--9-9-9-9--4--5-5-5-5-5-5-5-5--||
D|------------7--5-5-5-5-5-5-5-5-|--9-9-9-9--4--5-5-5-5-5-5-5-5--|

     D        A  G                  Bm      A/Ab  A
e|-------------------------------|-------------------------------|
B|-------------------------------|-------------------------------|
G|---7-7-7-7---------------------|-------------------------------|
D|---7-7-7-7--7--5-5-5-5-5-5-5-5-|--9-9-9-9-----5-5-5-5-5-5-5-5--|
A|---5-5-5-5--7--5-5-5-5-5-5-5-5-|--9-9-9-9--5--5-5-5-5-5-5-5-5--|
D|------------7--5-5-5-5-5-5-5-5-|--9-9-9-9--4--5-5-5-5-5-5-5-5--|

    Bm    A     
e|--------------|
B|--------------|
G|--------------|
D|--------5-----|
A|--5-x8--5-x8--|
D|--4-----5-----|

Finish on a G

            
            
Suggest correction
Creating personal tab
Creating personal tab
You can edit any tab online and save it as your Personal.

You can edit, replace or remove any tab part or add personal notes – all changes will be seen only by you.

Personal tabs can be accessed anytime from any device, even offline.
Learn more »
comments
print report bad tab
1 comment total.
0 reply
rhys.duncan.16 161 Mar 24, 2017 11:54 PM

just a note - i will probably update this once there are some recorded live versions of the song

guest
You may want to rate the tab now too:
select rating
Wanna post a correction for this tab? Suggest correction