Oops, an error
Loading. Please wait.

Lost In Stereo Tab

version 1
version 1

Live

Whole song

Interactive

648 views 1 this week
no commentswrite comment
1 2 3 4 5
please rate
add to favorites
launch autoscroll
font size
0
reset
how to read this tab
guitar tuner
Tab Pro tools
  • play this tab
  • loop segment
  • change instrument
  • show fretboard
  • metronome
×
Best way to learn
"Lost In Stereo"
Autoscroll
slow
fast
+/-
esc
set tempo
stop
Contributor
Difficulty
Tuning
novice
C# G# C# F# A# D#
All Time Low - Lost in Stereo Live
Tabbed by : Khalamity
Drop C#
Based on their Straight to DVD Performance

Format :

Main Riff
Verse 1
Chorus
Verse 2
Chorus
Bridge
Breakdown
Chorus x2

~~~~~~~~Verse 1~~~~~~~~

Lead
D#|----------------------------------|
A#|----------------------------------|
F#|-\12--15-14-1012--\15-14~-17~-15~-|
C#|-\x---x--x--x-x---\x--x-~-x-~-x-~-| x2
G#|-\10--13-12-8-10--\13-12~-15~-13~-|
C#|----------------------------------|


Rhythm
D#|-------------------------------------|
A#|-------------------------------------|
F#|----------33333333-------------------|
C#|-55555555-33333333-33333333-11111111-|
G#|-55555555-11111111-33333333-11111111-|
C#|-55555555----------33333333-11111111-|


~~~~~~~Verse 1~~~~~~~

Lead/Rhythm
D#|--------------|
A#|--------------|
F#|-3--2---------|
C#|-3--3--1---11-|
G#|-1--0--1---11-|
C#|-------1---11-|
              x
D#|-------------------------------------------------------------------|
A#|-------------------------------------------------------------------|
F#|-33----------------2-----------------------------------------------|
C#|-33-33333333333333-3-33333333333333-1----------------33333333------|
G#|-11-11111111111111-0-00000000000000-1-11111111111111-33333333------|
C#|------------------------------------1-11111111111111-33333333---8/-|
    x  xxxxxxxxxxxxxx   xxxxxxxxxxxxxx   xxxxxxxxxxxxxx


~~~~~~~Chorus~~~~~~~

Lead
D#|---------------------------------------------|
A#|---------------------------------------------|
F#|-77777777-1010101010101010-55555555-33333333-|
C#|-xxxxxxxx-x-x-x-x-x-x-x-x--xxxxxxxx-xxxxxxxx-|  x2
G#|-55555555-8-8-8-8-8-8-8-8--33333333-11111111-|
C#|---------------------------------------------|

D#|-----x-xx------x-xx--------x-xx-----x-xx-|
A#|-----x-xx------x-xx--------x-xx-----x-xx-|
F#|-77--x-xx--33--x-xx--1010--x-xx--55-x-xx-|
C#|-xx--x-xx--xx--x-xx--x-x---x-xx--xx-x-xx-|
G#|-55--x-xx--11--x-xx--8-8---x-xx--33-x-xx-|
C#|-----x-xx------x-xx--------x-xx-----x-xx-|

D#|--------------------------------------|
A#|--------------------------------------|
F#|-77777777-1010101010101010-55555555-3-|
C#|-xxxxxxxx-x-x-x-x-x-x-x-x--xxxxxxxx-x-|
G#|-55555555-8-8-8-8-8-8-8-8--33333333-1-|
C#|--------------------------------------|


Rhythm
D#|-------------------------------------|
A#|-------------------------------------|
F#|----------33333333-------------------|
C#|-55555555-33333333-33333333-11111111-|  x2
G#|-55555555-11111111-33333333-11111111-|
C#|-55555555----------33333333-11111111-|

D#|-----x-xx------x-xx------x-xx-----x-xx-|
A#|-----x-xx------x-xx------x-xx-----x-xx-|
F#|-----x-xx------x-xx--33--x-xx-----x-xx-|
C#|-55--x-xx--11--x-xx--33--x-xx--33-x-xx-|
G#|-55--x-xx--11--x-xx--11--x-xx--33-x-xx-|
C#|-55--x-xx--11--x-xx------x-xx--33-x-xx-|

D#|------------------------------|
A#|------------------------------|
F#|----------33333333------------|
C#|-55555555-33333333-33333333-1-|
G#|-55555555-11111111-33333333-1-|
C#|-55555555----------33333333-1-|


~~~~~~~Verse 2~~~~~~~

Lead
D#|-------13-------13-------13-------13-------13----|
A#|-10-11----10-11----10-11----10-11----10-11----11-|
F#|-------------------------------------------------| 
C#|-------------------------------------------------| x7
G#|-------------------------------------------------|
C#|-------------------------------------------------|


Rhythm
D#|---| |--------------------------------------------------------------|
A#|---| |--------------------------------------------------------------|
F#|---| |-33----------------2------------------------------------------|
C#|-1-| |-33-33333333333333-3-33333333333333-1----------------33333333-|
G#|-1-| |-11-11111111111111-0-00000000000000-1-11111111111111-33333333-|
C#|-1-| |------------------------------------1-11111111111111-33333333-|
          x  xxxxxxxxxxxxxx   xxxxxxxxxxxxxx   xxxxxxxxxxxxxx


~~~~~~~Bridge~~~~~~~

Lead
D#|-------------------------------------------------|
A#|-------------11-11-13-13-------------11-11-13-13-|
F#|-12-12-12-12-------------12-12-12-12-------------|
C#|-------------------------------------------------|
G#|-------------------------------------------------|
C#|-------------------------------------------------|

D#|-------------------------------------------------|
A#|-------------11-11-13-13-------------11-11-13-13-|
F#|-10-10-10-10-------------10-10-10-10-------------|
C#|-------------------------------------------------| x2
G#|-------------------------------------------------|
C#|-------------------------------------------------|

D#|-------------------------------------------------|
A#|-------------------------11-11-11-11-10-10-10-10-|
F#|-10-10-10-10-10-10-10-10-------------------------|
C#|-------------------------------------------------|
G#|-------------------------------------------------|
C#|-------------------------------------------------|

D#|-------------------------------------------------|
A#|-------------11-11-13-13-------------11-11-13-13-|
F#|-12-12-12-12-------------12-12-12-12-------------|
C#|-------------------------------------------------|
G#|-------------------------------------------------|
C#|-------------------------------------------------|

D#|-------------------------------------------------|
A#|-------------11-11-13-13-------------11-11-13-13-|
F#|-10-10-10-10-------------10-10-10-10-------------|
C#|-------------------------------------------------|
G#|-------------------------------------------------|
C#|-------------------------------------------------|

D#|-------------------------------------------------|
A#|-------------------------11-11-11-11-10-10-10-10-|
F#|-10-10-10-10-10-10-10-10-------------------------|
C#|-------------------------------------------------|
G#|-------------------------------------------------|
C#|-------------------------------------------------|

D#|------------------------------|
A#|-10-10-10-10-10-10-10-10--11~-|
F#|------------------------------|
C#|------------------------------|
G#|------------------------------|
C#|------------------------------|


Rhythm
D#|--------------------------------------|
A#|--------------------------------------|
F#|--55555555-88888888-33333333-22222222-|
C#|--55555555-88888888-33333333-33333333-|
G#|--33333333-66666666-11111111-00000000-|
C#|--------------------------------------|

D#|-----------------------------------------|
A#|-----------------------------------------|
F#|--55555555-88888888-1010101010101010-10~-|
C#|--55555555-88888888-1010101010101010-10~-|
G#|--33333333-66666666-8-8-8-8-8-8-8-8--8-~-|
C#|-----------------------------------------|


~~~~~~~Breakdown~~~~~~~

Lead
(Pickslide towards the end)

Rhythm
D#|-------------------|
A#|-------------------|
F#|-------------------|
C#|-11111111-11111111-|
G#|-11111111-11111111-|
C#|-11111111-11111111-|
    xxxxxxxx xxx

-------------------------------------------------------------
This is how it goes as far as I can hear. Awesome song, have fun playing along to it.
comments
We did not receive enough feedback on this tab! Please rate:
print report bad tab
1 2 3 4 5
I want to post or [tab]
guest
You may want to rate the tab now too:
select rating
Please do not post tabs as comments. Select "correction" instead!