Oops, an error
Loading. Please wait.

Lost In Stereo Tab

version 1
version 1

Whole song

Interactive

111,036 views 75 this week
12 commentsread comments
1 2 3 4 5
excellent!
x 29
add to favorites
launch autoscroll
font size
0
reset
how to read this tab
guitar tuner
Autoscroll
slow
fast
+/-
esc
set tempo
stop
Help us to improve Ultimate-Guitar.com Take our survey!
×
Author
After watching them play the song live twice, i believe ive perfected my tab.

Intro - 00:00
E|-----------------------------|
B|-----------------------------| Lead
G|----15-14----------15-14-----|
D|-17-------15-17-17-------15~-| x2
A|-----------------------------|
D|-----------------------------|

E|-----------------------------|
B|-----------------------------| Rhythm
G|--------3--------------------|
D|-5------3-(x8)-3------1------| x2
A|-5-(x8)-1------3-(x8)-1-(x8)-|
D|-5-------------3------1------|

Verse - 00:15
E|--------------------|---------------------------------|
B|--------------------|---------------------------------|
G|-3-3--2-2-----------|-3-3-----------------------------|
D|-3-3--3-3--1-1--1-1-|-3-3-----------------------------|
A|-1-1--0-0--1-1--1-1-|-1-1-1-1-1-1-1-1-1-1-1-1-1-1-1-1-|
D|-----------1-1--1-1-|---------------------------------|
Pm                          ............................

E|-----------------------------------------------------------------|
B|-----------------------------------------------------------------|
G|-2-2-------------------------------------------------------------|
D|-3-3-----------------------------1-1-----------------------------|
A|-0-0-0-0-0-0-0-0-0-0-0-0-0-0-0-0-1-1-----------------------------|
D|---------------------------------1-1-1-1-1-1-1-1-1-1-1-1-1-1-1-1-|
Pm     ...........................     ............................

E|-------------------|
B|-------------------|
G|-------------------|
D|-------------------|
A|-----------------3-|
D|-3-3-3-3-3-3-3-3-3-|
Pm....................

Chorus - 00:41
E|-----------------------------|
B|-----------------------------|
G|--------3--------------------| x2
D|-5------3-(x8)-3------1------|
A|-5-(x8)-1------3-(x8)-1-(x8)-|
D|-5-------------3------1------|

E|--------------------|
B|--------------------|
G|-----------3-3------|
D|-5-5--1-1--3-3--3-3-|
A|-5-5--1-1--1-1--3-3-|
D|-5-5--1-1-------3-3-|

E|------------------------|
B|------------------------|
G|--------3---------------|
D|-5------3-(x8)-3------1-|
A|-5-(x8)-1------3-(x8)-1-|
D|-5-------------3------1-|

Re-Intro - 01:07
E|-----------------------------|
B|-----------------------------| Lead
G|----15-14----------15-14-----|
D|-17-------15-17-17-------15~-| x2
A|-----------------------------|
D|-----------------------------|

E|-----------------------------|
B|-----------------------------| Rhythm
G|--------3--------------------|
D|-5------3-(x8)-3------1------|
A|-5-(x8)-1------3-(x8)-1-(x8)-|
D|-5-------------3------1------|

Verse - 1:13
E|--------------------|---------------------------------|
B|--------------------|---------------------------------| Rhythm
G|-3-3--2-2-----------|-3-3-----------------------------|
D|-3-3--3-3--1-1--1-1-|-3-3-----------------------------|
A|-1-1--0-0--1-1--1-1-|-1-1-1-1-1-1-1-1-1-1-1-1-1-1-1-1-|
D|-----------1-1--1-1-|---------------------------------|
Pm                          ............................

E|-----------------------------------------------------------------|
B|-----------------------------------------------------------------| Rhythm
G|-2-2-------------------------------------------------------------|
D|-3-3-----------------------------1-1-----------------------------|
A|-0-0-0-0-0-0-0-0-0-0-0-0-0-0-0-0-1-1-----------------------------|
D|---------------------------------1-1-1-1-1-1-1-1-1-1-1-1-1-1-1-1-|
Pm     ...........................     ............................

E|-------------------|
B|-------------------| Rhythm
G|-------------------|
D|-------------------|
A|-----------------3-|
D|-3-3-3-3-3-3-3-3-3-|
Pm....................

E|-------------------------------------------------|
B|-------18-------18-------18-------18-------18----| Lead
G|-14-15----14-15----14-15----14-15----14-15----15-| x7
D|-------------------------------------------------|
A|-------------------------------------------------|
D|-------------------------------------------------|

E|----------------------------|
B|-------18-------18-------18-| Lead
G|-14-15----14-15----14-15----|
D|----------------------------|
A|----------------------------|
D|----------------------------|

Chorus - 1:39
E|-----------------------------|
B|-----------------------------|
G|--------3--------------------| x2
D|-5------3-(x8)-3------1------|
A|-5-(x8)-1------3-(x8)-1-(x8)-|
D|-5-------------3------1------|

E|--------------------|
B|--------------------|
G|-----------3-3------|
D|-5-5--1-1--3-3--3-3-|
A|-5-5--1-1--1-1--3-3-|
D|-5-5--1-1-------3-3-|

E|------------------------|
B|------------------------|
G|--------3---------------|
D|-5------3-(x8)-3------1-|
A|-5-(x8)-1------3-(x8)-1-|
D|-5-------------3------1-|

Bridge - 2:04-2:30
E|-------------------------|-------------------------------------------------|
B|-------------------------|-18-18-18-18-------------18-18-18-18-------------| Lead
G|-------15-17-------15-17-|-------------15-15-17-17-------------15-15-17-17-|
D|-17-17-------17-17-------|-------------------------------------------------|
A|-------------------------|-------------------------------------------------|
D|-------------------------|-------------------------------------------------|

E|-------------------------|-----------------------------|
B|-------------------------|-----------------------------| Lead
G|-------15-17-------15-17-|-----15-15-15-15-14-14-14-14-|
D|-15-15-------15-15-------|-15~-------------------------|
A|-------------------------|-----------------------------|
D|-------------------------|-----------------------------|

E|-------------------------|-------------------------------------------------|
B|-------------------------|-18-18-18-18-------------18-18-18-18-------------| Lead
G|-------15-17-------15-17-|-------------15-15-17-17-------------15-15-17-17-|
D|-17-17-------17-17-------|-------------------------------------------------|
A|-------------------------|-------------------------------------------------|
D|-------------------------|-------------------------------------------------|

E|-----------------------------|
B|-----------------------------| Lead
G|-----15-15-15-15-14-14-14-14-|
D|-15~-------------------------|
A|-----------------------------|
D|-----------------------------|

e|------------------------------------------------------------|
B|------------------------------------------------------------| Rhythm
G|--5-------8-------3-------2--------5-------8-------10-------|
D|--5-(x16)-8-(x16)-3-(x16)-3-(x16)--5-(x16)-8-(x16)-10-(x16)-|
A|--3-------6-------1-------0--------3-------6--------8-------|
D|------------------------------------------------------------|


Bridge2 - 2:30
E|-
B|-
G|-
D|- A few chords here, cant really hear them
A|-
D|-

Chorus - 2:40
E|-----------------------------|
B|-----------------------------|
G|--------3--------------------|
D|-5------3-(x8)-3------1------| x2
A|-5-(x8)-1------3-(x8)-1-(x8)-|
D|-5-------------3------1------|

E|--------------------|
B|--------------------|
G|-----------3-3------|
D|-5-5--1-1--3-3--3-3-|
A|-5-5--1-1--1-1--3-3-|
D|-5-5--1-1-------3-3-|

E|-----------------------------|
B|-----------------------------|
G|--------3--------------------|
D|-5------3-(x8)-3------1------| x3
A|-5-(x8)-1------3-(x8)-1-(x8)-|
D|-5-------------3------1------|

E|--------------------|
B|--------------------|
G|-----------3-3------|
D|-5-5--1-1--3-3--3-3-|
A|-5-5--1-1--1-1--3-3-|
D|-5-5--1-1-------3-3-|

E|-----------------------------|
B|-----------------------------|
G|--------3--------------------|
D|-5------3-(x8)-3------1------|
A|-5-(x8)-1------3-(x8)-1-(x5)-|
D|-5-------------3------1------|
Suggest correction
comments
print report bad tab
12 comments total. Showing first comments.
0 reply
aireyc 124 wrote on June 30 2009, 04:28 pm

Mostly correct, but you tabbed out the demo and not the final version. The final is slightly different.

0 reply
Aurigo 1,082 wrote on June 30 2009, 04:39 pm

Ive definately got the final version, cause ive heard both clips from the demo and the final and i tabbed from the final. Unless they had two demos, which i highly doubt.

0 reply
aireyc 124 wrote on July 1 2009, 01:11 pm

Well you're missing the entire second guitar part, specifically in verse 2, which was not included in the demo.

guest
You may want to rate the tab now too:
select rating
Please do not post tabs as comments. Select "correction" instead!