Oops, an error
Loading. Please wait.

Lost In Stereo Tab

version 2
version 2

Whole song

Interactive

12,493 views 1 this week
1 commentread comment
1 2 3 4 5
please rate
add to favorites
launch autoscroll
font size
0
reset
how to read this tab
guitar tuner
Autoscroll
slow
fast
+/-
esc
set tempo
stop
Help us to improve Ultimate-Guitar.com Take our survey!
×
Author
Difficulty
novice
-------------------------------------------------------------------------------
			     LOST IN STEREO - All Time Low
-------------------------------------------------------------------------------
Tabbed by: cm

----------------------- Guitar 1 -----------------------
Tuning: Standard

Verse

e|-------------------------------------------------------- 
b|-------------(x2)-------------- When you got a dropped-- 
g|-----3-----8-----3-3-------8-8- Tuning, you can play  -- 
d|--5--3--3--8-----3-3--3-3--8-8- the Eb-Chords on the  -- 
a|--5--1--3--6-----1-1--3-3--6-6- E-String             --- 
E|--3-----1-------------1-1------------------------------- 

e|--------------------------------------------------------|
b|--------------------------------------------------------|
g|-------------3-3-------------------8-8------------------|
d|------3---3--3-3-3-3-3--3-3--------8-8-8-8-8-8-8--------|
a|----x-3-x-3--1-1-1-1-1--3-3-3-3-3--6-6-6-6-6-6-6--------|
E|----x-1-x-1-------------1-1-1-1-1-----------------------|
	          pm.....    pm.....     pm........


Chorus

e|--------------------------------------------------------|
b|-------------x2-----------------------------------------|
g|-----3-----8----------8-8--3-3-----------3-----8--------|
d|--5--3--3--8-----5-5--8-8--3-3--3-3---5--3--3--8--------|
a|--5--1--3--6-----5-5--6-6--1-1--3-3---5--1--3--6--------|
E|--3-----1--------3-3------------1-1---3-----1-----------|

Break

e|--------------------------------------------------------|
b|--------------------------------------------------------|
g|--5--8--3--2---5--8--10~--------------------------------|
d|--5--8--3--2---5--8--10~--------------------------------|
a|--3--6--1--0---3--6--8~---------------------------------|
E|--------------------------------------------------------|

----------------------- Guitar 2 -----------------------
Tuning: Standard

Verse

e|--------------------------------------------------------|
b|--------15-15-13-13----13-------------------------------|2x2
g|--12-12-------------15----------------------------------|
d|--------------------------------------------------------|
a|--------------------------------------------------------|
E|--------------------------------------------------------|

 At the end of the Verse (Eb-Chord)
e|--------------------------------------------------------|
b|--6-6-6-6-6-6-6\----------------------------------------|
g|--------------------------------------------------------|
d|--------------------------------------------------------|
a|--------------------------------------------------------|
E|--------------------------------------------------------|

2nd Verse

e|--------13-------13-------13-------13-------------------|
b|-----11-------11-------11-------11----------------------|
g|--12-------12-------12-------12-------------------------|
d|--------------------------------------------------------|
a|--------------------------------------------------------|
E|--------------------------------------------------------|

Break

e|--------------------------------------------------------|
b|--------------11-11-13-13---------------11-11-13-13-----|
g|--12-12-12-12---------------12-12-12-12-----------------|
d|--------------------------------------------------------|
a|--------------------------------------------------------|
E|--------------------------------------------------------|

e|--------------------------------------------------------|
b|--------------11-11-13-13---------------11-11-13-13-----|
g|--10-10-10-10---------------10-10-10-10-----------------|
d|--------------------------------------------------------|
a|--------------------------------------------------------|
E|--------------------------------------------------------|

e|--------------------------------------------------------|
b|--------------11-11-13-13---------------11-11-13-13-----|
g|--------------------------------------------------------|
d|--12-12-12-12---------------12-12-12-12-----------------|
a|--------------------------------------------------------|
E|--------------------------------------------------------|

e|--------------------------------------------------------|
b|--------------13-13-13-13-12-12-12-12-11-11-11-11-------|
g|--------------------------------------------------------|
d|--10-10-10-10-------------------------------------------|
a|--------------------------------------------------------|
E|--------------------------------------------------------|

-

e|--------------------------------------------------------|
b|--------------11-11-13-13---------------11-11-13-13-----|
g|--12-12-12-12---------------12-12-12-12-----------------|
d|--------------------------------------------------------|
a|--------------------------------------------------------|
E|--------------------------------------------------------|

e|--------------------------------------------------------|
b|--------------11-11-13-13---------------11-11-13-13-----|
g|--10-10-10-10---------------10-10-10-10-----------------|
d|--------------------------------------------------------|
a|--------------------------------------------------------|
E|--------------------------------------------------------|

e|--------------------------------------------------------|
b|--------------11-11-11-11-12-12-12-12-12~---------------|
g|--------------------------------------------------------|
d|--10-10-10-10-------------------------------------------|
a|--------------------------------------------------------|
E|--------------------------------------------------------|

----------------------- Order -----------------------


|
|Verse
|Chorus
|
|Verse
|Chorus
|
|Break
|Chorus 2x
|
Suggest correction
What's this?
You can suggest a correction to this tab. Community and Mods will review your correction and vote to approve or reject it.
comments
We did not receive enough feedback on this tab! Please rate:
print report bad tab
1 2 3 4 5
1 comment total.
0 reply
alltimelow64 870 wrote on August 7 2009, 12:25 pm

where you have e|--------13-------13-------13-------13-------------------|
b|-----11-------11-------11-------11----------------------|
g|--12-------12-------12-------12-------------------------|
d|--------------------------------------------------------|
a|--------------------------------------------------------|
E|--------------------------------------------------------|

on the second verse, it's actually
e|--------13-------13-------13------13-------------------|
b|---10h11----10h11---10h11----10h11----------------------|
g|--------------------------------------------------------|
d|--------------------------------------------------------|
a|--------------------------------------------------------|
E|--------------------------------------------------------|

guest
You may want to rate the tab now too:
select rating
Please do not post tabs as comments. Select "correction" instead!