Oops, an error
Loading. Please wait.

Lost In Stereo Tab

version 3
version 3

Whole song

Interactive

17,490 views 12 this week
2 commentsread comments
1 2 3 4 5
excellent!
x 10
add to favorites
launch autoscroll
font size
0
reset
how to read this tab
guitar tuner
Autoscroll
slow
fast
+/-
esc
set tempo
stop
Help us to improve Ultimate-Guitar.com Take our survey!
×
Author
All Time Low - Lost In Stereo

tabber: paul westerink

I tried to make this tab a very-easy-to-read-tab.
There are a few versions of this song, but they aren't 100% correct. 
People who think this song is in standard tuning are wrong, it really is in drop D.
 

tuning:

Guitar 1: DADGBe
Guitar 2: DADGBe


[INTRO]

Lyrics:

 |Lost in stereo, lost in stereo
 |Lost in stereo, lost in stereo


Guitar 1

e|------------------------------------------------------------------------|
B|------------------------------------------------------------------------|
G|--------------------3-3-3-3-3-3-3-3-------------------------------------|
D|--5-5-5-5-5-5-5-5---3-3-3-3-3-3-3-3---3-3-3-3-3-3-3-3---1-1-1-1-1-1-1-1-|
A|--5-5-5-5-5-5-5-5---1-1-1-1-1-1-1-1---3-3-3-3-3-3-3-3---1-1-1-1-1-1-1-1-|
D|--5-5-5-5-5-5-5-5---------------------3-3-3-3-3-3-3-3---1-1-1-1-1-1-1-1-|x2


Guitar 2

e|------------------------------------------------------------------------|
B|------------------------------------------------------------------------|
G|--------15----14-------------15-14--------------------------------------|
D|--17---------------15-17--17-------15~----------------------------------|
A|------------------------------------------------------------------------|
D|------------------------------------------------------------------------|x2


[VERSE 1]



 |She works for the weekend
 |Mix tape of her favorite bands
 |Tearin' up the radio
 |Lost in the stereo sound


Guitar 1

e|------------------------------------------------------------------------|
B|------------------------------------------------------------------------|
G|--33-----------------22-------------------------------------------------|
D|--33-----------------33-----------------11----------------------x3-x3---|
A|--11-----------------00-----------------11----------------------x3-x3---|
D|----------------------------------------11----------------------x3-x3---|



 |She's trouble in a tank top
 |Pretty little time bomb
 |Blowing up
 |I'll take you down
 |Living in the radio
 |Lost in the stereo sound

Guitar 1
      xxxxxxxxxxxxxxxx    xxxxxxxxxxxxxxxx   xxxxxxxxxxxxxxxx xxxxxxxxxx
e|------------------------------------------------------------------------|
B|------------------------------------------------------------------------|
G|--3-------------------2-------------------------------------------------|
D|--3-------------------3------------------1------------------------------|
A|--1-1111111111111111--0-0000000000000000-1------------------------------|
D|-----------------------------------------1-1111111111111111-3333333333--|


Guitar 2
                                                              <
e|------------------------------------------------------------------------|
B|------------------------------------------------------------666666666\--|
G|------------------------------------------------------------------------|
D|------------------------------------------------------------------------|
A|------------------------------------------------------------------------|
D|------------------------------------------------------------------------|


[CHORUS 1]



 |She's dancing alone
 |I'm ready to go
 |But she's so
 |(Lost in stereo, lost in stereo)
 |She's out of control
 |So beautiful
 |(Lost in stereo, lost in stereo)


Guitar 1

e|------------------------------------------------------------------------|
B|------------------------------------------------------------------------|
G|--------------------3-3-3-3-3-3-3-3-------------------------------------|
D|--5-5-5-5-5-5-5-5---3-3-3-3-3-3-3-3---3-3-3-3-3-3-3-3---1-1-1-1-1-1-1-1-|
A|--5-5-5-5-5-5-5-5---1-1-1-1-1-1-1-1---3-3-3-3-3-3-3-3---1-1-1-1-1-1-1-1-|
D|--5-5-5-5-5-5-5-5---------------------3-3-3-3-3-3-3-3---1-1-1-1-1-1-1-1-|x2

 |And I've been
 |Waiting for so long
 |But she'll never know

e|------------------------------------------------------------------------|
B|------------------------------------------------------------------------|
G|--------------------------------------3--3------------------------------|
D|--5--5--x------x-x--1--1--x------x-x--3--3--x------x-x--3-3-------------|
A|--5--5--x------x-x--1--1--x------x-x--1--1--x------x-x--3-3-------------|
D|--5--5--x------x-x--1--1--x------x-x--------x------x-x--3-3---/12\------|

 |I'm losing hope
 |'Cause she's so
 |(Lost in stereo, lost in stereo)
 |Lost in stereo, lost in stereo

e|------------------------------------------------------------------------|
B|------------------------------------------------------------------------|
G|--------------------3-3-3-3-3-3-3-3-------------------------------------|
D|--5-5-5-5-5-5-5-5---3-3-3-3-3-3-3-3---3-3-3-3-3-3-3-3---1---------------|
A|--5-5-5-5-5-5-5-5---1-1-1-1-1-1-1-1---3-3-3-3-3-3-3-3---1---------------|
D|--5-5-5-5-5-5-5-5---------------------3-3-3-3-3-3-3-3---1---------------|


[INTRO]


Guitar 1

e|------------------------------------------------------------------------|
B|------------------------------------------------------------------------|
G|--------------------3-3-3-3-3-3-3-3-------------------------------------|
D|--5-5-5-5-5-5-5-5---3-3-3-3-3-3-3-3---3-3-3-3-3-3-3-3---1-1-1-1-1-1-1-1-|
A|--5-5-5-5-5-5-5-5---1-1-1-1-1-1-1-1---3-3-3-3-3-3-3-3---1-1-1-1-1-1-1-1-|
D|--5-5-5-5-5-5-5-5---------------------3-3-3-3-3-3-3-3---1-1-1-1-1-1-1-1-|


Guitar 2

e|------------------------------------------------------------------------|
B|------------------------------------------------------------------------|
G|--------15----14-------------15-14--------------------------------------|
D|--17---------------15-17--17-------15~----------------------------------|
A|------------------------------------------------------------------------|
D|------------------------------------------------------------------------|


[VERSE 2]


 |Shake down on a Saturday
 |Sit back
 |Gotta catch my breath
 |'Cause every time I see her
 |I know she's gonna take it back somehow


Guitar 1

e|------------------------------------------------------------------------|
B|------------------------------------------------------------------------|
G|--33-----------------22-------------------------------------------------|
D|--33-----------------33-----------------11----------------------x3-x3---|
A|--11-----------------00-----------------11----------------------x3-x3---|
D|----------------------------------------11----------------------x3-x3---|


Guitar 2
RIFF
e|------------|
B|--------18--|
G|--14h15-----|
D|------------|
A|------------|
D|------------|x5

e|------------|
B|--------18--|
G|--15p14-----|
D|------------|
A|------------|
D|------------|x5
keep repeating these RIFFS till chorus


 |Tattoos and a switchblade attitude
 |Snakebite heart with a bubblegum smile
 |Sex in stereo
 |Don't turn the radio down

Guitar 1
      xxxxxxxxxxxxxxxx    xxxxxxxxxxxxxxxx   xxxxxxxxxxxxxxxx xxxxxxxxxx
e|------------------------------------------------------------------------|
B|------------------------------------------------------------------------|
G|--3-------------------2-------------------------------------------------|
D|--3-------------------3------------------1------------------------------|
A|--1-1111111111111111--0-0000000000000000-1------------------------------|
D|-----------------------------------------1-1111111111111111-3333333333--|
 
Guitar 2
                                                             <
e|------------------------------------------------------------------------|
B|------------------------------------------------------------666666666\--|
G|------------------------------------------------------------------------|
D|------------------------------------------------------------------------|
A|------------------------------------------------------------------------|
D|------------------------------------------------------------------------|


[CHORUS 2]



 |She's dancing alone
 |I'm ready to go
 |But she's so
 |(Lost in stereo, lost in stereo)
 |She's out of control
 |So beautiful
 |(Lost in stereo, lost in stereo)


Guitar 1

e|-------------------------------------------------------------------------|
B|-------------------------------------------------------------------------|
G|--------------------3-3-3-3-3-3-3-3--------------------------------------|
D|--5-5-5-5-5-5-5-5---3-3-3-3-3-3-3-3---3-3-3-3-3-3-3-3---1-1-1-1-1-1-1-1--|
A|--5-5-5-5-5-5-5-5---1-1-1-1-1-1-1-1---3-3-3-3-3-3-3-3---1-1-1-1-1-1-1-1--|
D|--5-5-5-5-5-5-5-5---------------------3-3-3-3-3-3-3-3---1-1-1-1-1-1-1-1--|x2

 |And I've been
 |Waiting for so long
 |But she'll never know

e|-------------------------------------------------------------------------|
B|-------------------------------------------------------------------------|
G|--------------------------------------3--3-------------------------------|
D|--5--5--x------x-x--1--1--x------x-x--3--3--x------x-x--3-3--------------|
A|--5--5--x------x-x--1--1--x------x-x--1--1--x------x-x--3-3--------------|
D|--5--5--x------x-x--1--1--x------x-x--------x------x-x--3-3---/12\-------|

 |I'm losing hope
 |'Cause she's so
 |(Lost in stereo, lost in stereo)
 |Lost in stereo, lost in stereo

e|-------------------------------------------------------------------------|
B|-------------------------------------------------------------------------|
G|--------------------3-3-3-3-3-3-3-3--------------------------------------|
D|--5-5-5-5-5-5-5-5---3-3-3-3-3-3-3-3---3-3-3-3-3-3-3-3---1-1-1-1-1-1-1-1--|
A|--5-5-5-5-5-5-5-5---1-1-1-1-1-1-1-1---3-3-3-3-3-3-3-3---1-1-1-1-1-1-1-1--|
D|--5-5-5-5-5-5-5-5---------------------3-3-3-3-3-3-3-3---1-1-1-1-1-1-1-1--|



[BRIDGE]


|And I'm just like cellophane
|'Cause she sees right through me
|I know she's glitter and gold
|And that's just the price I pay
|When I don't even know her name
|She's slipping away


Guitar 1

e|------------------------------------------------------------------------|
B|------------------------------------------------------------------------|
G|--5555555555555555-8888888888888888-3333333333333333-2222222222222222---|
D|--5555555555555555-8888888888888888-3333333333333333-3333333333333333---|
A|--3333333333333333-6666666666666666-1111111111111111-0000000000000000---|
D|------------------------------------------------------------------------|

e|------------------------------------------------------------------------|
B|------------------------------------------------------------------------|
G|--5555555555555555-8888888888888888-10101010101010101010101010101010----|
D|--5555555555555555-8888888888888888-10101010101010101010101010101010----|
A|--3333333333333333-6666666666666666-8-8-8-8-8-8-8-8-8-8-8-8-8-8-8-8-----|
D|------------------------------------------------------------------------|

Guitar 2

e|------------------------------------------------------------------------|
B|------------------------------------------------------------------------|
G|---------------15-15-17-17--------------15-15-17-17---------------------|
D|--17-17-17-17---------------17-17-17-17---------------------------------|
A|------------------------------------------------------------------------|
D|------------------------------------------------------------------------|

e|------------------------------------------------------------------------|
B|------------------------------------------------------------------------|
G|---------------15-15-17-17--------------15-15-17-17---------------------|
D|--15-15-15-15---------------15-15-15-15---------------------------------|
A|------------------------------------------------------------------------|
D|------------------------------------------------------------------------|

e|------------------------------------------------------------------------|
B|------------------------------------------------------------------------|
G|---------------15-15-17-17---------------15-15-17-17--------------------|
D|------------------------------------------------------------------------|
A|--17-17-17-17---------------17-17-17-17---------------------------------|
D|------------------------------------------------------------------------|

e|------------------------------------------------------------------------|
B|------------------------------------------------------------------------|
G|--------------17-17-15-15-15-14-14-14-15-15-15-15-15--------------------|
D|------------------------------------------------------------------------|
A|--15-15-15-15-----------------------------------------------------------|
D|------------------------------------------------------------------------|

e|------------------------------------------------------------------------|
B|------------------------------------------------------------------------|
G|---------------15-15-17-17--------------15-15-17-17---------------------|
D|--17-17-17-17---------------17-17-17-17---------------------------------|
A|------------------------------------------------------------------------|
D|------------------------------------------------------------------------|

e|------------------------------------------------------------------------|
B|------------------------------------------------------------------------|
G|---------------15-15-17-17--------------15-15-17-17---------------------|
D|--15-15-15-15---------------15-15-15-15---------------------------------|
A|------------------------------------------------------------------------|
D|------------------------------------------------------------------------|

e|------------------------------------------------------------------------|
B|------------------------------------------------------------------------|
G|--------------17-17-17-17-15-15-15-15-14-14-14-14-15-15-15-15-----------|
D|------------------------------------------------------------------------|
A|--17-17-17-17-----------------------------------------------------------|
D|------------------------------------------------------------------------|



 |She works for the weekend
 |Mix tape of her favorite bands
 |Tearin' up the radio
 |Lost in the stereo sound


[CHORUS 2]



 |She's dancing alone
 |I'm ready to go
 |But she's so
 |(Lost in stereo, lost in stereo)
 |She's out of control
 |So beautiful
 |(Lost in stereo, lost in stereo)


Guitar 1


e|-------------------------------------------------------------------------|
B|-------------------------------------------------------------------------|
G|--------------------3-3-3-3-3-3-3-3--------------------------------------|
D|--5-5-5-5-5-5-5-5---3-3-3-3-3-3-3-3---3-3-3-3-3-3-3-3---1-1-1-1-1-1-1-1--|
A|--5-5-5-5-5-5-5-5---1-1-1-1-1-1-1-1---3-3-3-3-3-3-3-3---1-1-1-1-1-1-1-1--|
D|--5-5-5-5-5-5-5-5---------------------3-3-3-3-3-3-3-3---1-1-1-1-1-1-1-1--|x2

 |And I've been
 |Waiting for so long
 |But she'll never know

e|-------------------------------------------------------------------------|
B|-------------------------------------------------------------------------|
G|--------------------------------------3--3-------------------------------|
D|--5--5--x------x-x--1--1--x------x-x--3--3--x------x-x--3-3--------------|
A|--5--5--x------x-x--1--1--x------x-x--1--1--x------x-x--3-3--------------|
D|--5--5--x------x-x--1--1--x------x-x--------x------x-x--3-3---/12\-------|

 |I'm losing hope
 |'Cause she's so
 |(Lost in stereo, lost in stereo)
 |Lost in stereo, lost in stereo

e|-------------------------------------------------------------------------|
B|-------------------------------------------------------------------------|
G|--------------------3-3-3-3-3-3-3-3--------------------------------------|
D|--5-5-5-5-5-5-5-5---3-3-3-3-3-3-3-3---3-3-3-3-3-3-3-3---1-1-1-1-1-1-1-1--|
A|--5-5-5-5-5-5-5-5---1-1-1-1-1-1-1-1---3-3-3-3-3-3-3-3---1-1-1-1-1-1-1-1--|
D|--5-5-5-5-5-5-5-5---------------------3-3-3-3-3-3-3-3---1-1-1-1-1-1-1-1--|


[OUTRO]


 |She's dancing alone
 |I'm ready to go
 |But she's so
 |(Lost in stereo, lost in stereo)
 |She's out of control
 |So beautiful
 |(Lost in stereo, lost in stereo)


Guitar 1


e|-------------------------------------------------------------------------|
B|-------------------------------------------------------------------------|
G|--------------------3-3-3-3-3-3-3-3--------------------------------------|
D|--5-5-5-5-5-5-5-5---3-3-3-3-3-3-3-3---3-3-3-3-3-3-3-3---1-1-1-1-1-1-1-1--|
A|--5-5-5-5-5-5-5-5---1-1-1-1-1-1-1-1---3-3-3-3-3-3-3-3---1-1-1-1-1-1-1-1--|
D|--5-5-5-5-5-5-5-5---------------------3-3-3-3-3-3-3-3---1-1-1-1-1-1-1-1--|x2

 |And I've been
 |Waiting for so long
 |But she'll never know

e|-------------------------------------------------------------------------|
B|-------------------------------------------------------------------------|
G|--------------------------------------3--3-------------------------------|
D|--5--5--x------x-x--1--1--x------x-x--3--3--x------x-x--3-3--------------|
A|--5--5--x------x-x--1--1--x------x-x--1--1--x------x-x--3-3--------------|
D|--5--5--x------x-x--1--1--x------x-x--------x------x-x--3-3---/12\-------|

 |I'm losing hope
 |'Cause she's so
 |(Lost in stereo, lost in stereo)
 |Lost in stereo, lost in stereo

e|-------------------------------------------------------------------------|
B|-------------------------------------------------------------------------|
G|--------------------3-3-3-3-3-3-3-3--------------------------------------|
D|--5-5-5-5-5-5-5-5---3-3-3-3-3-3-3-3---3-3-3-3-3-3-3-3---1--1--1----------|
A|--5-5-5-5-5-5-5-5---1-1-1-1-1-1-1-1---3-3-3-3-3-3-3-3---1--1--1----------|
D|--5-5-5-5-5-5-5-5---------------------3-3-3-3-3-3-3-3---1--1--1----------|









Suggest correction
What's this?
You can suggest a correction to this tab. Community and Mods will review your correction and vote to approve or reject it.
comments
print report bad tab
2 comments total.
+3 reply
Peacemaker21 164 wrote on November 12 2009, 10:44 pm

You have created an excellent tab my friend, 5 stars

0 reply
antonio.gor 468 wrote on April 30 2013, 09:27 pm

Great tab, 5 stars.

guest
You may want to rate the tab now too:
select rating
Please do not post tabs as comments. Select "correction" instead!