Oops, an error
Loading. Please wait.

Lullabies Bass Tab

version 1
version 1

Whole song

Interactive

7,077 views 3 this week
1 commentread comment
1 2 3 4 5
excellent!
x 3
add to favorites
launch autoscroll
font size
0
reset
guitar tuner
Autoscroll
slow
fast
+/-
esc
set tempo
stop
Help us to improve Ultimate-Guitar.com Take our survey!
×
Contributor
starts at 0:38

Intro/Verse 1
G--------------------------------------|
D--------------------------------------|
A--------------------------------------|
E-0---0---0---0-0-0--5---5---5---5-5-5-|

G----------------------------------------|
D----------------------------------------|
A----------------------------------------|
E-0---0---0---0-0-0--5---5---5-7-5-4-3-2-|

G--------------------------------------|
D--------------------------------------|
A--------------------------------------|
E-0---0---0---0-0-0--5---5---5---5-5-5-|

G-------------------------------2---------|
D---------------------------------3-3-4-2-|
A-----------------------------------------|
E-0---0---0---0-0-0-5-5-5-5-5-5-----------|

Chorus 1
G-------------------------------------------------|
D-------------------------------------------------|
A-------------------------------------------------| x2
E-0-0-0-0-0-0-0-0-0-0-0-0-5-5-5-5-5-5-5-5-5-5-5-5-|

G--------------------------------------------|
D--------------------------------------------|
A--------------------------------------------| x1
E-0-0-0-0------------5-5-5-5-5-5-5-5-5-5-5---|

G----------------------------------------|
D----------------------------------------|
A----------------------------------------|
E-0-0-0-0-0-0-0-0-0-0-0-0--5---5---5---5-|

Verse 2
G-------------------------|
D-------------------------|
A-------------------------|
E-00-00-00-00-55-55-55-55-|

G----------------------------|
D----------------------------|
A----------------------------|
E-00-00-00-00-55-55-55-5-5-5-|

Pre Chorus
G----------------------------------------|
D----------------------------------------|
A----------------------------------------|
E-2--2--2--2-3-4-5-5-5-5-5-5-5-5-5-5-5-5-|

G----------------------------2---------|
D------------------------------3-3-4-2-|
A--------------------------------------|
E-2--2--2--2-3-4-5-5-5-5-5-5-----------|

Chorus 2
G-------------------------------------------------|
D-------------------------------------------------|
A-------------------------------------------------|
E-0-0-0-0-0-0-0-0-0-0-0-0-5-5-5-5-5-5-5-5-5-5-5-5-|

G-------------------------------------|
D-------------------------------------|
A-------------------------------------|
E-0-0-0-0~----5-5-5-5-5-5-5-5-5-5-5-5-|

G----------------------------------------------|
D----------------------------------------------|
A----------------------------------------------|
E-0-0-0-0-0-0-0-0-0-0-0-0--5---5---5---5---0~--|

no bass in bridge

Final Chorus
G----------------------------------|
D----------------------------------|
A----------------------------------| x2
E-00000000000000005555555555555555-

G-------------------------------|
D-------------------------------|
A-------------------------------|
E-0~-----------5555555555555555-|

G----------------------------------|
D----------------------------------|
A----------------------------------|
E-00000000000000005555555555555555-

Ending
G----------------------------2---------|
D------------------------------3-3-4-2-|
A--------------------------------------|
E-0---0---0---0-0-0--5---5-------------|

G------------------------|
D------------------------|
A------------------------|
E-0---0---0---0-0-0--5~--|
Suggest correction new What's this?
You can suggest a correction to this tab. Community and Mods will review your correction and vote to approve or reject it.
comments
We did not receive enough feedback on this tab! Please rate:
print report bad tab
1 2 3 4 5
1 comment total.
0 reply
mwebassmaster09 98 wrote on August 9 2007, 05:15 pm

This is a good tab but you messed up on one part. In the pre-chorus riff where Zach Merrick plays a high A as his first note the tab should be...

G-2-1---------
D-----2-4-2---
A-------------
E-------------

guest
You may want to rate the tab now too:
select rating
Please do not post tabs as comments. Select "correction" instead!