Oops, an error
Loading. Please wait.

Lullabies Bass Tab

version 2
version 2

Whole song

Interactive

2,345 views 1 this week
1 commentread comment
1 2 3 4 5
excellent!
x 4
add to favorites
launch autoscroll
font size
0
reset
guitar tuner
Tab Pro tools
  • play this tab
  • loop segment
  • change instrument
  • show fretboard
  • metronome
×
Best way to learn
"Lullabies"
Autoscroll
slow
fast
+/-
esc
set tempo
stop
Contributor
Difficulty
novice
-------------------------------------------------------------------------------
                         LULLABIES - All Time Low
-------------------------------------------------------------------------------

Tabbed By: Hanson
e-mail: justshort179@spoofer.com

Tuning: Standard

The other tab for this was great just wanted to fix/add some fills 

Intro (0:21)
G----------------------|
D----------------------|
A-------0~~-------0~~--|
E--0~~-------0~~-------|

Verse 
G-------------------------------|
D-------------------------------|
A----------------0--0--0h2~-0~--|
E--0--0--0--000-----------------|

G-------------------------------------|
D-------------------------------------|
A----------------0--0--0h2-0---0------|
E--0--0--0--000--------------4---4-2--|

G------------------------------|
D------------------------------|
A----------------0--0--0--0----|
E--0--0--0--000------------42--|

G-------------------------1h2p1---------|
D-------------------------------2-4-22--|
A----------------000000-----------------|
E--0--0--0--000-------------------------|

Chorus 
G------------------------------|
D------------------------------|
A----------------000000000000--| x2
E--000000000000----------------|

G------------------------------------------------|
D------------------------------------------------|
A--------000000000000----------------0--0--0--0--| 
E--0000----------------000000000000--------------|

Verse 
G----------------------------|
D----------------------------|
A--------------00-00-00-0----|
E-00-00-00-00------------42--|

G----------------------------|
D----------------------------|
A--------------00-00-00-00---|
E-00-00-00-00----------------|

G----------------------------|
D----------------------------| x3
A--------------00-00-00-00---|
E-00-00-00-00----------------|

G----------------------------|
D----------------------------|
A--------------00-00-00-0----|
E-00-00-00-00------------42--|

Pre-Chorus
G----------------------------------------|
D----------------------------------------|
A----------------------------------------|
E--2-2-2-2-3-4-5-5-5-5-5-5-5-5-5-5-5-5-|

G---------------------------1h2p1---------|
D---------------------------------2-4-22--|
A-----------------------------------------|
E--2-2-2-2-3-4-5-5-5-5-5-5----------------|

Chorus 
G------------------------------|
D------------------------------|
A----------------000000000000--| x2
E--000000000000----------------|

G--------------------------------------------------|
D--------------------------------------------------|
A----------000000000000----------------0--0--0--0--| 
E--0000~~----------------000000000000--------------|

Bridge (softly in background)
G----------------------|
D----------------------| x2
A-------0~~-------0~~--|
E--0~~-------0~~-------|

Chorus
G--------------------------------------|
D--------------------------------------|
A--------------------0000000000000000--| x2
E--0000000000000000--------------------|

G------------------------|
D------------------------|
A------0000000000000000--|
E-0~~--------------------|

G----------------------------------------|
D----------------------------------------|
A--------------------000000000000000000--|
E--0000000000000000----------------------|

Outro
G----------------------1h2p1---------|
D----------------------------2-4-22--|
A----------------0--0----------------|
E--0--0--0--000----------------------|

G---------------------|
D---------------------|
A----------------0~~--|
E--0--0--0--000-------|
comments
print report bad tab
1 comment total.
0 reply
chrisjenks wrote on August 8 2008, 08:20 am

good job!

I want to post or [tab]
guest
You may want to rate the tab now too:
select rating
Please do not post tabs as comments. Select "correction" instead!