Oops, an error
Loading. Please wait.

Merry Christmas Kiss My Ass Tab

version 1
version 1

Whole song

11,851 views 78 this week
no commentswrite comment
1 2 3 4 5
x 5
add to favorites
launch autoscroll
font size
0
reset
how to read this tab
guitar tuner
Autoscroll
slow
fast
+/-
esc
set tempo
stop
Help us to improve Ultimate-Guitar.com Take our survey!
×
Author
Difficulty
novice
-------------------------------------------------------------------------------
                             MERRY CHRISTMAS (Kiss My Ass) - All Time Low
-------------------------------------------------------------------------------

In the key of E-Major
An early christmas-present for you!

NOTES: 
This is a pretty hard song to learn, it has many many chord changes in the chorus and bridge,
so listen carefully when the chord changes as I didn't really include the timing of the chords! 

Tuning: Standard

Intro:

e|---------------------------------------------------------------------------|
B|---------------------------------------------------------------------------|
G|--9---9--------------------------------------------------------------------|
D|--9---9--9-----------------------------------------------------------------|
A|--7---7--9-----------------------------------------------------------------|
E|--0------7-----------------------------------------------------------------|


Verse:

e|---------------------------------------------------------------------------|
B|---------------------------------------------------------------------------|
G|------------6---2-------------------6---2---4------------------------------|
D|----2---6---6---2-----------2---6---6---2---4------------------------------|
A|----2---6---4---0-----------2---6---4---0---2------------------------------|
E|----0---4-------------x3----0---4------------------------------------------|


Chorus:

e|---------------------------------------------------------------------------|
B|---------------------------------------------------------------------------|
G|----------------------------6-------4-------------5---6--4--2---2~--4------|
D|----2---7--6--4---9--7--6---6---4---4---2---7--6--6---6--4--2---2~--4------|
A|----2---7--6--4---9--7--6---4---4---2---2---7--6--3---4--2--0---0~--2------|
E|----0---5--4--2---7--5--4-------2-------0---5--4---------------------------|


After the chorus:

e|---------------------------------------------------------------------------|
B|---------------------------------------------------------------------------|
G|--9---9--------------------------------------------------------------------|
D|--9---9--9-----------------------------------------------------------------|
A|--7---7--9-----------------------------------------------------------------|
E|--0------7-----------------------------------------------------------------|

(Same as the intro)
Then you play

VERSE
CHORUS

after that:

Bridge:

e|---------------------------------------------------------------------------|
B|---------------------------------------------------------------------------|
G|---6---5---6---3---2--4--5--6---5---6---3---2---5---4----------------------|
D|---6---6---6---4---2--4--6--6---6---6---4---2---6---4----------------------|
A|---4---3---4---1---0--2--3--4---3---4---1---0---3---2----------------------|
E|---------------------------------------------------------------------------|

Then the CHORUS repeats again, but the first time they skip the starting E chord. 


And at last it ends on a E power chord

e|---------------------------------------------------------------------------|
B|---------------------------------------------------------------------------|
G|---------------------------------------------------------------------------|
D|---2-----------------------------------------------------------------------|
A|---2-----------------------------------------------------------------------|
E|---0-----------------------------------------------------------------------|

GL! And remember to listen for the chord changes as they aren't marked here!


************************************

| /   slide up
| \   slide down
| h   hammer-on
| p   pull-off
| ~   vibrato
| +   harmonic
| x   Mute note
| b   Bend
| pb  Pre-bend
| br  Bend release
| pbr Pre-bend release
| brb Bend release bend

************************************
Suggest correction
comments
print report bad tab
guest
You may want to rate the tab now too:
select rating
Wanna post a correction for this tab? Suggest correction