Oops, an error
Loading. Please wait.
We have Chord Pro version of Nice2Knou.
It's the closest thing you can get to the original song and it has interactive parts. Check out the tab »
×

Nice2Knou tab

version 1
version 1

Whole song

  • No capo, tabbed from studio recording.

Interactive

1,399 views 72 this week
no commentswrite comment
1 2 3 4 5
x 5
add to favorites
×
Save as Personal and add changes to this tab that will be seen only by you. Learn more ›
×
You can save this tab as Personal to edit and correct it or add notes. All changes will be seen only by you. Learn more »
launch autoscroll
font size
0
reset
how to read this tab
guitar tuner
edit
Autoscroll
slow
fast
+/-
esc
set tempo
stop
About this tab version
No capo, tabbed from studio recording. Was this info helpful? Yes No
-----------------------------------------------------------------
Nice2KnoU - All Time Low
-----------------------------------------------------------------
Tabbed by: Samuwhale

Tuning: Half Step Down
This is my first tab so it's very likely I made some mistakes, I'm 100% sure the chords are accurate but
I might have written down too many/little strums here and there.



[Intro] Both Guitars
| Slide in between chord changes.
eb|---------------------------------------------------------------------------------------------|
Bb|---------------------------------------------------------------------------------------------|
Gb|--11-11-11-11--13-13-13---6-6-6-6--8-8-8----4-4-4-4--6-6-6----3-3-3-3-4-4-4------------------|
Db|--x--x--x--x---x--x--x----x-x-x-x--x-x-x----x-x-x-x--x-x-x----x-x-x-x-x-x-x------------------|
Ab|--9--9--9--9---11-11-11---4-4-4-4--6-6-6----2-2-2-2--4-4-4----1-1-1-1-2-2-2------------------|
Eb|---------------------------------------------------------------------------------------------|(x4)


[Verse 1] Bass Transcribed to Guitar
"We always say that we'll keep in touch, nobody does, but it don't matter much"
eb|--------------------------------------------------------------------------------------------|
Bb|--------------------------------------------------------------------------------------------|
Gb|--------------------------------------------------------------------------------------------|
Db|--6-6-6-6-6-6-6--6-6-6-6-6-6-6--6-6-6-6-6-6-6--6-6-6-6-6-6-6--9-9-9-9-9-9-9--9-9-9-9-9-9-9--|
Ab|--6-6-6-6-6-6-6--6-6-6-6-6-6-6--6-6-6-6-6-6-6--6-6-6-6-6-6-6--9-9-9-9-9-9-9--9-9-9-9-9-9-9--|
Eb|--4-4-4-4-4-4-4--4-4-4-4-4-4-4--4-4-4-4-4-4-4--4-4-4-4-4-4-4--7-7-7-7-7-7-7--7-7-7-7-7-7-7--|(x2)

[Pre-Chorus] Bass Transcribed To Guitar
Eb|-----------------|
Bb|-----------------|
Gb|--------4--------|
Db|--2-----4-----4--|
Ab|--2-----2-----4--|
Eb|--0-----------2--|

[Chorus 1] Guitar 1
Eb|--------------------------------------------------------------------------------------------------|
Bb|--------------------------------------------------------------------------------------------------|
Gb|--4-4-4-4-4-4-4-4-4-4-4-4-4-4-3-3-----------------------------------------------------------------|
Eb|--4-4-4-4-4-4-4-4-4-4-4-4-4-4-4-4-6-6-6-6-6-6-6-6-6-6-6-6-6-6-4-4-6-6-6-6-6-6-6-6-6-6-6-6-6-6-4-4-|
Ab|--2-2-2-2-2-2-2-2-2-2-2-2-2-2-1-1-6-6-6-6-6-6-6-6-6-6-6-6-6-6-4-4-6-6-6-6-6-6-6-6-6-6-6-6-6-6-4-4-|
Eb|----------------------------------4-4-4-4-4-4-4-4-4-4-4-4-4-4-2-2-4-4-4-4-4-4-4-4-4-4-4-4-4-4-2-2-| (x2)

[Chorus 1] Guitar 2
| Slide in between chord changes.
eb|---------------------------------------------------------------------------------|
Bb|---------------------------------------------------------------------------------|
Gb|--3-3-3-3-3-3-3-3-3-3-3--6-6-6--8-8-8-8-8-8-8-8-8-8-8--16-16-16-16--15-15-15-15--|
Db|--x-x-x-x-x-x-x-x-x-x-x--x-x-x--x-x-x-x-x-x-x-x-x-x-x--x--x--x--x---x--x--x--x---|
Ab|--1-1-1-1-1-1-1-1-1-1-1--4-4-4--6-6-6-6-6-6-6-6-6-6-6--14-14-14-14--13-13-13-13--|
Eb|---------------------------------------------------------------------------------|cont.

eb|-cont'd------------------------------------------------------|
Bb|-------------------------------------------------------------|
Gb|--13-13-13-13-13-13-13-13-13--8-8-8-8-8-8-8-8-8-8-8-8-8-6-6--|
Db|--x--x--x--x--x--x--x--x--x---x-x-x-x-x-x-x-x-x-x-x-x-x-x-x--|
Ab|--11-11-11-11-11-11-11-11-11--6-6-6-6-6-6-6-6-6-6-6-6-6-4-4--|
Eb|-------------------------------------------------------------| cont.

eb|-cont'd--------------------------------------------------------------------------|
Bb|---------------------------------------------------------------------------------|
Gb|--3-3-3-3-3-3-3-3-3-3-3--6-6-6--8-8-8-8-8-8-8-8-8-8-8--16-16-16-16--15-15-15-15--|
Db|--x-x-x-x-x-x-x-x-x-x-x--x-x-x--x-x-x-x-x-x-x-x-x-x-x--x--x--x--x---x--x--x--x---|
Ab|--1-1-1-1-1-1-1-1-1-1-1--4-4-4--6-6-6-6-6-6-6-6-6-6-6--14-14-14-14--13-13-13-13--|
Eb|---------------------------------------------------------------------------------|cont.

eb|-cont'd-----------------------------|
Bb|------------------------------------|
Gb|--13-13-13-13-13-13-13-13-13----13--|
Db|--x--x--x--x--x--x--x--x--x-----x---|
Ab|--11-11-11-11-11-11-11-11-11----11--|
Eb|------------------------------------|
                                   ^Let Final Chord Ring out till Verse 2


[Verse 2] Guitar 1 (Bass Transcribed)
Call out the names that you used to know...
eb|-----------------------------------------------------------------------------------------------|
Bb|-----------------------------------------------------------------------------------------------|
Gb|-----------------------------------------------------------------------------------------------|
Db|--6-6-6-6-6-6-6--6-6-6-6-6-6-6--6-6-6-6-6-6-6--6-6-6-6-6-6-6--9-9-9-9-9-9-9--9-9-9-9-9-9-9-----|
Ab|--6-6-6-6-6-6-6--6-6-6-6-6-6-6--6-6-6-6-6-6-6--6-6-6-6-6-6-6--9-9-9-9-9-9-9--9-9-9-9-9-9-9-----|
Eb|--4-4-4-4-4-4-4--4-4-4-4-4-4-4--4-4-4-4-4-4-4--4-4-4-4-4-4-4--7-7-7-7-7-7-7--7-7-7-7-7-7-7-----|

eb|-----------------------------------------------------------------------------------------------|
Bb|-----------------------------------------------------------------------------------------------|
Gb|-----------------------------------------------------------------------------------------------|
Db|--9-9-9-9-9-9-9--9-9-9-9-9-9-9--6-6-6-6-6-6-6-6-6-6-6-6-6-6-6-6-6-6-6-6-6-6-6-6-6-6-6-6-6-6-6--|
Ab|--9-9-9-9-9-9-9--9-9-9-9-9-9-9--6-6-6-6-6-6-6-6-6-6-6-6-6-6-6-6-6-6-6-6-6-6-6-6-6-6-6-6-6-6-6--|
Eb|--7-7-7-7-7-7-7--7-7-7-7-7-7-7--4-4-4-4-4-4-4-4-4-4-4-4-4-4-4-4-4-4-4-4-4-4-4-4-4-4-4-4-4-4-4--|

eb|-----------------------------------|
Bb|-----------------------------------|
Gb|-----------------------------------|
Db|--9-9-9-9-9-9-9--9-9-9-9-9-9-9-----|
Ab|--9-9-9-9-9-9-9--9-9-9-9-9-9-9-----|
Eb|--7-7-7-7-7-7-7--7-7-7-7-7-7-7-----|

[Verse 2] Guitar 2
eb|-------------------| 
Bb|-------------------|
Gb|-------------------|
Db|-------------------|
Ab|----------------===|
Eb|--7-7-7-11-11-11-9-|

[Pre-Chorus 2] Guitar 1
Eb|-----------------|
Bb|-----------------|
Gb|--------4--------|
Db|--2-----4-----4--|
Ab|--2-----2-----4--|
Eb|--0-----------2--|

[Pre-Chorus 2] Guitar 2
Eb|---------------------|
Bb|--------7-----4------|
Gb|--6-6p4------------6-|
Db|---------------------|
Ab|---------------------|
Eb|---------------------|

[Chorus 2] Guitar 1
Eb|--------------------------------------------------------------------------------------------------|
Bb|--------------------------------------------------------------------------------------------------|
Gb|--4-4-4-4-4-4-4-4-4-4-4-4-4-4-3-3-----------------------------------------------------------------|
Eb|--4-4-4-4-4-4-4-4-4-4-4-4-4-4-4-4-6-6-6-6-6-6-6-6-6-6-6-6-6-6-4-4-6-6-6-6-6-6-6-6-6-6-6-6-6-6-4-4-|
Ab|--2-2-2-2-2-2-2-2-2-2-2-2-2-2-1-1-6-6-6-6-6-6-6-6-6-6-6-6-6-6-4-4-6-6-6-6-6-6-6-6-6-6-6-6-6-6-4-4-|
Eb|----------------------------------4-4-4-4-4-4-4-4-4-4-4-4-4-4-2-2-4-4-4-4-4-4-4-4-4-4-4-4-4-4-2-2-| (x2)

[Chorus 2] Guitar 2
| Slide in between chord changes.
eb|---------------------------------------------------------------------------------|
Bb|---------------------------------------------------------------------------------|
Gb|--3-3-3-3-3-3-3-3-3-3-3--6-6-6--8-8-8-8-8-8-8-8-8-8-8--16-16-16-16--15-15-15-15--|
Db|--x-x-x-x-x-x-x-x-x-x-x--x-x-x--x-x-x-x-x-x-x-x-x-x-x--x--x--x--x---x--x--x--x---|
Ab|--1-1-1-1-1-1-1-1-1-1-1--4-4-4--6-6-6-6-6-6-6-6-6-6-6--14-14-14-14--13-13-13-13--|
Eb|---------------------------------------------------------------------------------|cont.

eb|-cont'd------------------------------------------------------|
Bb|-------------------------------------------------------------|
Gb|--13-13-13-13-13-13-13-13-13--8-8-8-8-8-8-8-8-8-8-8-8-8-6-6--|
Db|--x--x--x--x--x--x--x--x--x---x-x-x-x-x-x-x-x-x-x-x-x-x-x-x--|
Ab|--11-11-11-11-11-11-11-11-11--6-6-6-6-6-6-6-6-6-6-6-6-6-4-4--|
Eb|-------------------------------------------------------------| cont.

eb|-cont'd--------------------------------------------------------------------------|
Bb|---------------------------------------------------------------------------------|
Gb|--3-3-3-3-3-3-3-3-3-3-3--6-6-6--8-8-8-8-8-8-8-8-8-8-8--16-16-16-16--15-15-15-15--|
Db|--x-x-x-x-x-x-x-x-x-x-x--x-x-x--x-x-x-x-x-x-x-x-x-x-x--x--x--x--x---x--x--x--x---|
Ab|--1-1-1-1-1-1-1-1-1-1-1--4-4-4--6-6-6-6-6-6-6-6-6-6-6--14-14-14-14--13-13-13-13--|
Eb|---------------------------------------------------------------------------------|cont.

eb|-cont'd-----------------------------|
Bb|------------------------------------|
Gb|--13-13-13-13-13-13-13-13-13----13--|
Db|--x--x--x--x--x--x--x--x--x-----x---|
Ab|--11-11-11-11-11-11-11-11-11----11--|
Eb|------------------------------------|

[Bridge] Guitar 1
eb|----------------------------------------------------------------|
Bb|----------------------------------------------------------------|
Gb|----------------------------------------------------------------|
Db|--2-2-2-2-2-2-2-2-2-2-2-2-2-2-2--4-4-4-4-4-4-4-4-4-4-4-4-4-4-4--|
Ab|--2-2-2-2-2-2-2-2-2-2-2-2-2-2-2--4-4-4-4-4-4-4-4-4-4-4-4-4-4-4--|
Eb|--0-0-0-0-0-0-0-0-0-0-0-0-0-0-0--2-2-2-2-2-2-2-2-2-2-2-2-2-2-2--|

[Bridge] Guitar 2
eb|------|
Bb|------|
Gb|--16--|
Db|--x---|
Ab|--14--|
Eb|------|


[Breakdown Part 1 and 2] Synth (Or Guitar 2)
eb|--------------7-------------------------------------------------|
Bb|------------------7---------------------------------------------|
Gb|------6---8-----------6---8-------------------------------------|
Db|--9-------------------------------------------------------------|
Ab|----------------------------------------------------------------|
Eb|----------------------------------------------------------------|


[Breakdown Part 2] Guitar 1
| Slide in between chord changes.
eb|---------------------------------------------------------------------------------------------|
Bb|---------------------------------------------------------------------------------------------|
Gb|--11-11-11-11--13-13-13---6-6-6-6--8-8-8----4-4-4-4--6-6-6----3-3-3-3-4-4-4------------------|
Db|--x--x--x--x---x--x--x----x-x-x-x--x-x-x----x-x-x-x--x-x-x----x-x-x-x-x-x-x------------------|
Ab|--9--9--9--9---11-11-11---4-4-4-4--6-6-6----2-2-2-2--4-4-4----1-1-1-1-2-2-2------------------|
Eb|---------------------------------------------------------------------------------------------|(x2)

[Chorus 3] Guitar 1
Eb|--------------------------------------------------------------------------------------------------|
Bb|--------------------------------------------------------------------------------------------------|
Gb|--4-4-4-4-4-4-4-4-4-4-4-4-4-4-3-3-----------------------------------------------------------------|
Eb|--4-4-4-4-4-4-4-4-4-4-4-4-4-4-4-4-6-6-6-6-6-6-6-6-6-6-6-6-6-6-4-4-6-6-6-6-6-6-6-6-6-6-6-6-6-6-4-4-|
Ab|--2-2-2-2-2-2-2-2-2-2-2-2-2-2-1-1-6-6-6-6-6-6-6-6-6-6-6-6-6-6-4-4-6-6-6-6-6-6-6-6-6-6-6-6-6-6-4-4-|
Eb|----------------------------------4-4-4-4-4-4-4-4-4-4-4-4-4-4-2-2-4-4-4-4-4-4-4-4-4-4-4-4-4-4-2-2-| (x2)

[Chorus 3] Guitar 2
| Slide in between chord changes.
eb|---------------------------------------------------------------------------------------|
Bb|---------------------------------------------------------------------------------------|
Gb|--3-3-3-3-3-3-3-3-3-3-3--6-6-6--8-8-8-8-8-8-8-8-8-8-8--16-16-16-16--15-15-15-15--------|
Db|--x-x-x-x-x-x-x-x-x-x-x--x-x-x--x-x-x-x-x-x-x-x-x-x-x--x--x--x--x---x--x--x--x---------|
Ab|--1-1-1-1-1-1-1-1-1-1-1--4-4-4--6-6-6-6-6-6-6-6-6-6-6--14-14-14-14--13-13-13-13--------|
Eb|---------------------------------------------------------------------------------cont.-|

eb|-cont'd---------------------------------------------------------|
Bb|----------------------------------------------------------------|
Gb|--11-11-11-11-11-11-11-11-11--6-6-6-6-6-6-6-6-6-6-6-6-6-6-6-----|
Db|--x--x--x--x--x--x--x--x--x---x-x-x-x-x-x-x-x-x-x-x-x-x-x-x-----|
Ab|--9--9--9--9--9--9--9--9--9---4-4-4-4-4-4-4-4-4-4-4-4-4-4-4-----|
Eb|----------------------------------------------------------------|(2x)

[Outro] Guitar
One last time...
eb|----------------------------------------------------------------|
Bb|----------------------------------------------------------------|
Gb|----------------------------------------------------------------|
Db|--2-2-2-2-2-2-2-2-2-2-2-2-2-2-2---------------------------------|
Ab|--2-2-2-2-2-2-2-2-2-2-2-2-2-2-2---------------------------------|
Eb|--0-0-0-0-0-0-0-0-0-0-0-0-0-0-0---------------------------------|



************************************

| b  Bend
| x  Dead note
| cont'd
| cont.

************************************
Suggest correction
Creating personal tab
Creating personal tab
You can edit any tab online and save it as your Personal.

You can edit, replace or remove any tab part or add personal notes – all changes will be seen only by you.

Personal tabs can be accessed anytime from any device, even offline.
Learn more »
comments
print report bad tab
guest
You may want to rate the tab now too:
select rating
Wanna post a correction for this tab? Suggest correction