Oops, an error
Loading. Please wait.

Noel Tab

version 1
version 1

Whole song

Interactive

7,563 views 1 this week
3 commentsread comments
1 2 3 4 5
x 4
add to favorites
launch autoscroll
font size
0
reset
how to read this tab
guitar tuner
Autoscroll
slow
fast
+/-
esc
set tempo
stop
Help us to improve Ultimate-Guitar.com Take our survey!
×
Author
Difficulty
novice
 FINALLY I FIGURED OUT HOW TO PLAY IT!!!!!

Figure out the strumming yourself, to difficult to tab


 Intro Gt. 1

e|---------------------------------------------------------------------|
b|-----5--------5---------5---------5----------------------------------|
g|--------4---------------4---------4----------------------------------| x4
d|---------------------------------------------------------------------|
a|--4--------4---------0--------2--------------------------------------|
e|---------------------------------------------------------------------|

 Intro Gt.2

e|----------------------------------------------|
b|----------------------------------------------|
g|----------------------------------------------|
d|----6-----/2-----/4-4-4-4-4-------------------|
a|----------------------------------------------|
e|----------------------------------------------|

  Intro Verse Gt.1

e|-------------------------------------------------------------------|
b|-------------------------------------------------------------------|
g|----9-----4-----6--------------------------------------------------|
d|----9-----4-----6--------------------------------------------------|
a|----7-----2-----4--------------------------------------------------|
e|-------------------------------------------------------------------|

  Intro Verse Gt.2

e|-----------------------------------------------------|
b|-----------------------------------------------------|
g|-----------------------------------------------------|
d|---2----1----2----4----6----4----6----4--------------|
a|-----------------------------------------------------|
e|-----------------------------------------------------|

  Verse Gt.1

e|-------------------------------------------------------|
b|-------------------------------------------------------|
g|-----9-----4-----6-------9------4-----6-----2----4-----|
d|-----9-----4-----6-------9------4-----6-----2----4-----|
a|-----7-----2-----4-------7------2-----4-----0----2-----|
e|-------------------------------------------------------|
                   PM                   PM

The rest of the song uses the EXACT same chords, just different order, and the verses 
intro guitar one in the background constantly. If you have any questions request me on 
www.myspace.com/thegirlsastraightuphustlr or IM me on aim Bklynsk8er92
Suggest correction
comments
print report bad tab
3 comments total.
0 reply
keywr80 10 Sep 03, 2007 07:05 PM

intro sounds amazing...good work

0 reply
aeskaterboy92 10 Mar 16, 2009 07:53 PM

much easier way for the intro:
Intro Gt. 1

e|-----0--------0---------0---------0----------------------------------|
b|--------0---------------0---------0----------------------------------|
g|---------------------------------------------------------------------|
d|---------------------------------------------------------------------|
a|--4--------4---------0--------2--------------------------------------|
e|---------------------------------------------------------------------|

=]

0 reply
cobra_disco 57 Apr 29, 2009 06:28 PM

what is the chorus?

guest
You may want to rate the tab now too:
select rating
Wanna post a correction for this tab? Suggest correction