Oops, an error
Loading. Please wait.

Noel Tab

version 2
version 2

Whole song

Interactive

5,104 views 1 this week
2 commentsread comments
1 2 3 4 5
please rate
add to favorites
launch autoscroll
font size
0
reset
how to read this tab
guitar tuner
Autoscroll
slow
fast
+/-
esc
set tempo
stop
Help us to improve Ultimate-Guitar.com Take our survey!
×
Contributor
alright I've been meaning to fix this up a bit and now I finally have time so here we go....
Lead (correction thanks to alltimelow64)
e|-------------------------------|     
B|-----5------5----5--5----------|    
G|-------4--6------x--4----------| x4
D|-----------------6--0----------|
A|---4-------------0--0----------| 
E|-------------------------------|

Rhythm comes in after the lead plays the intro twice
e|---------------------------|
B|---------------------------|
G|---13~---9~--1111111111----|
D|----x----x----x-x-x-x-x----|
A|---11~---7~---9-9-9-9-9----| 
E|---------------------------|

Lead 0:20 seconds
e|------------------------------------|
B|------------------------------------|
G|---9999---88888---99999---11111111--|
D|---xxxx---xxxxx---xxxxx----x-x-x-x--|
A|---7777---66666---77777----9-9-9-9--| 
E|------------------------------------|

Rhythm 0:20 seconds
e|-------------------------------------------|
B|-------------------------------------------|
G|-------------------------------------------|
D|--77777777---99--9--9----1111111111111111--|
A|--77777777---99--9--9----1111111111111111--| 
E|--55555555---77--7--7-----9-9-9-9-9-9-9-9--|
               
Lead cont. 
e|----------------------------------------------|
b|----------------------------------------------|
g|--13131313--11111111---13131313--16161616-----|
D|---x-x-x-x---x-x-x-x----x-x-x-x---x-x-x-x-----|
A|--11111111---9-9-9-9---11111111--14141414-----|
E|----------------------------------------------|

Rhythm cont.
e|----------------------------|              
b|----------------------------|
G|----------------------------|
D|--77777777--111111111111----|
A|--77777777--111111111111----|
E|--55555555---9-9-9-9-9-9----|

Rhythm @ 0:31 seconds
e|--------------------------------------|  
B|--------------------------------------|
G|-----------------666666666------------|
D|---7~---9~-------666666666------------|       
A|---7~---9~-------444444444------------| 
E|---5~---7~----------------------------|
                   .........
Lead @ 0:31 seconds
e|---------------------------------------------|
B|------------------5------5-----5-----5-------|
G|----9~--8~----------6-4----6-4---6-4---6-4---|  
D|----x---x------------------------------------|   Repeat as needed
A|----7~--6~------4----------------------------| 
E|---------------------------------------------|
                  . . . .  . . . . . . . . . 
Lead cont. (It's getting harder to breathe)
e|------------------------------|
B|------------------------------|
G|-----9999--88--99--11111111---|  repeat this but only after the first  
D|-----xxxx--xx--xx---x-x-x-x---| time you play the intro bit
A|-----7777--66--77---9-9-9-9---|  
E|------------------------------|

Rhythm
e|-----------------------|
B|-----------------------|
G|-----------------------| Repeat as needed
D|----77777---9999-------|
A|----77777---9999-------| 
E|----55555---7777-------|
 
Rhythm Chorus
e|---------------------------|
B|---------------------------|
G|---9~----------------------|
D|---9~---11111111---7777----|
A|---7~---11111111---7777----| 
E|---------9-9-9-9---5555----|

Lead Chorus
e|-------------------------------------------|
B|-------------------------------------------|
G|---9~---16161616---1414---1313---11111111--|
D|---9~----x-x-x-x----x-x----x-x----x-x-x-x--|
A|---7~---14141414---1212---1111----9-9-9-9--| 
E|-------------------------------------------|

the next part is the same as before @ 0:20 seconds

e|----------------------------------------------------|
B|----------------------------------------------------|
G|----99999999----9999----99999999----131313131313----|
D|----99999999----xxxx----99999999-----x-x-x-x-x-x----|
A|----77777777----7777----77777777----111111111111----| 
E|----------------------------------------------------|
cont.
e|---------------------------------------------------|
b|---------------------------------------------------|
G|-------------16161616-------------16161616---------|
D|---77777777---x-x-x-x--77777777----x-x-x-x---------|
A|---77777777--14141414--77777777---14141414---------|
E|---55555555------------55555555--------------------|
 
Chorus @2:58 Rhythm+Lead
e|-----------------------------------------------------|
b|-----------------------------------------------------|
G|---9~------------------------------------------------|
D|---9~---11~--77777777--99999999--77777777--99999999--|  
A|---7~---11~--77777777--99999999--77777777--99999999--|   
E|--------9~---55555555--77777777--55555555--77777777--|  
Rhythm @3:19
e|------------------------------|
b|------------------------------|
G|--99999999--------------------|
D|--99999999--11111111--7777----|
A|--77777777--11111111--7777----|
E|-------------9-9-9-9--5555----|
Lead @3:40
e|--------------------------------|
b|--------------------------------|
G|--9999--88--16161616--14141414--|
D|--xxxx--xx---x-x-x-x---x-x-x-x--|
A|--7777--66--14141414--12121212--|
E|--------------------------------|

End
e|--------------------------------------|
B|--------------------------------------|
G|--------------------------------------|
D|----7--9--77---9--7-----2~------------|
A|----7--9--77---9--7-----2~------------| 
E|----5--7--55---7--5-----0~------------|
comments
We did not receive enough feedback on this tab! Please rate:
print report bad tab
1 2 3 4 5
2 comments total.
0 reply
jiggy182 129 wrote on May 16 2009, 11:52 am

Could you make it easier to understand please?

0 reply
alltimelow64 867 wrote on September 4 2009, 09:34 pm

i get
e|---------------|
B|-----5-------5-|
G|-------4--6----|
D|---------------|
A|---4-----------| for the first part of the intro
E|------------------------------|

I want to post or [tab]
guest
You may want to rate the tab now too:
select rating
Please do not post tabs as comments. Select "correction" instead!