Oops, an error
Loading. Please wait.

Oh Calamity tab

version 1
version 1

Whole song

Interactive

19,628 views 54 this week
3 commentsread comments
1 2 3 4 5
x 20
add to favorites
×
Save as Personal and add changes to this tab that will be seen only by you. Learn more ›
×
You can save this tab as Personal to edit and correct it or add notes. All changes will be seen only by you. Learn more »
launch autoscroll
font size
0
reset
how to read this tab
guitar tuner
edit
Autoscroll
slow
fast
+/-
esc
set tempo
stop
Author
Difficulty
Artist: All Time Low
Song: Oh, Calamity!
Album: Don't Panic: It's Longer Now! (2013)

Tabber: Aviv Abramovich
https://www.facebook.com/AvivAbramovich


[Intro]

e|---------------------------------|-----------------------------|
B|----3h4------4p3----------------3|3----------------------------|
G|--------5----------3--------3h5--|------3p2-3----3---2---2--3/5|
D|------------------------5--------|-----------------------------| 
A|---------------------------------|-----------------------------|
e|---------------------------------|-----------------------------|(x2)

[Verse] 
(All the verses are the same chords)
Cm                       Eb
When I was younger I was certain
            Gm             F
That I'd be fine without a queen
Cm                     Eb
Just a king inside his castle
        Gm       F
With an ocean in between
    Cm          Eb                Bb                F
Now all I do is sit and count the miles from you to me
    C          Eb     D
Oh, calamity

(The second part of the verse are same except the end)

    C          Eb     F
Oh, calamity

[Chorus]
            Eb         Bb      F
It's such a shame that we play strangers
Gm     D  Eb          Bb      F
No act to change what we've become
Gm         D      Eb         Bb                 D            Gm
Damn, it's such a shame that we've built such a wreck out of me
    C
Oh, calamity
    Eb         D
Oh, calamity

[Jack's Riff while "Calamity"]

e|---------------------------------------------|
B| 8-8-8-8-10-10-10-10-11-11-11-11-13-13-13-13-|
G|---------------------------------------------|
D|---------------------------------------------|
A|---------------------------------------------|
e|---------------------------------------------|

e|---------------------------------------------|
B| 8-8-8-8-10-10-10-10-11-11-11-11-10-10-10-10-|
G|---------------------------------------------|
D|---------------------------------------------|
A|---------------------------------------------|
e|---------------------------------------------|

All the rest of the song is the same

[Jack's Solo]

e|---------------------------------------------|
B|--6h8---8h10h11-p10--8---------10h11---------|
G|----------------------------12---------------|
D|-------------------------12----------12v-----|
A|---------------------------------------------|
e|---------------------------------------------|(x2)

In the solo at the end of the song (Outro) it ends in the 11 fret on the B string 
instead the 12 in D string, with a long (pretty crapy) vibrato


************************************

| h  hammer on
| p  pull off
| /  slide
| v  vibrato

************************************
Suggest correction
Creating personal tab
Creating personal tab
You can edit any tab online and save it as your Personal.

You can edit, replace or remove any tab part or add personal notes – all changes will be seen only by you.

Personal tabs can be accessed anytime from any device, even offline.
Learn more »
comments
print report bad tab
3 comments total.
+4 reply
numa210 10 Sep 30, 2013 01:00 PM

this is a great tab

-2 reply
monsterenergy17 41 Sep 09, 2015 02:32 PM

I'm not 100% sure, but wouldn't it sound more accurate if it were:
E --------------------------------|-----------------------------|
B ---3h4------4p3----------------3|3----------------------------|
G -------5---------5-3--------3h5-|------3p2-3----3---2---2--3/5|
D -----------------------5--------|-----------------------------| X2
A --------------------------------|-----------------------------|
e --------------------------------|-----------------------------|

0 reply
shannonlovesalex44 10 Apr 28, 2017 01:56 PM

Great tab, love it. I've always wanted to play this as it's my favourite All Time Low song and now I can! Thank you.

guest
You may want to rate the tab now too:
select rating
Wanna post a correction for this tab? Suggest correction