Oops, an error
Loading. Please wait.

Outlines Bass Tab

2,372 views 1 this week
no commentswrite comment
1 2 3 4 5
x 4
add to favorites
launch autoscroll
font size
0
reset
guitar tuner
Autoscroll
slow
fast
+/-
esc
set tempo
stop
Help us to improve Ultimate-Guitar.com Take our survey!
×
Author
Difficulty
novice
So this is my 1st tab, it sounds about right so yeah, base it on something like 
this. Zack improvs like crazy so go ahead and do the same to this.

The timing and 'strumming' on this isn't 100% you can play it how fast you want 
but the notes are just an idea.

I've just spread it out so its easier to read etc. Hopefully you'll get the idea...

Come in around 0:14

Verse 1:

G|----------------------------------------------------------|
D|----------------------------------------------------------|
A|--2-22---2-22555--------------------------222000--0-00----|
E|-----------------333---3-333-2--0-00--0-00------------2-22| 

G|-----------------------------------------------------------|
D|-----------------------------------------------------------|
A|--2-22---2-22555--------------------------222000--0-00-----|
E|-----------------333---3-333-2--0-00--0-00------------2-22-| 

Pre-Chorus:

G|--------|
D|--------|
A|-2------|
E|--------|

Chorus:

G|-------------------------------------------------------------------------|
D|-------------------------------------------------------------------------|
A|/22222222-22225555--------------------------------2222-00000000-0000-----|
E|-------------------33333333-33333333-00000000-0000------------------2222-|

G|-----------|
D|-----------|
A|-2-22--2-22|
E|-----------|

Verse 2:
Come back in around 1:21

G|------------------------------------------|
D|------------------------------------------|
A|--------------------------222000--0-00----|
E|-333---3-333-2--0-00--0-00------------2-22| 

G|----------------------------------------------------------|
D|----------------------------------------------------------|
A|--2-22---2-22555--------------------------222000--0-00----|
E|-----------------333---3-333-2--0-00--0-00------------2-22| 

Pre-Chorus:

G|--------|
D|--------|
A|-2------|
E|--------|

Chorus:

G|-------------------------------------------------------------------------|
D|-------------------------------------------------------------------------|
A|/22222222-22225555--------------------------------2222-00000000-0000-----|
E|-------------------33333333-33333333-00000000-0000------------------2222-|

Bridge(2:16)

I'm not too sure about the 1's

G|------------------------------------------------------------------------|
D|------------------------------------------------------------------------|
A|22222222-22222222-------------------22222222-22222222-00000000-11111111-|
E|------------------00000000-00000000-------------------------------------|

Verse 3:

G|----------------------------------------------------------|
D|----------------------------------------------------------|
A|--2-22---2-22555--------------------------222000--0-00----|
E|-----------------333---3-333-2--0-00--0-00------------2-22|

Chorus:

Starts with clapping, come back in at 2:49

G|----------------------------------------------------------|
D|--------------------------------------------------2-------|
A|---------------------------------2222-00000000-2h4-42-024-|
E|-3--333333-33333333-00000000-0000--------------------4----|

G|-------------------------------------------------------------------------|
D|-------------------------------------------------------------------------|
A|-22222222-22225555--------------------------------2222-00000000-0000-----|
E|-------------------33333333-33333333-00000000-0000------------------2222-|

G|---------------------------------------------------------------------|
D|---------------------------------------------------------------------|
A|-22222222-22225555------------------------------2-22-0-00--0-00------|
E|-------------------33333333-33333333-0-00--0-00-----------------2-22-|


I'm not 100% on the fill, but it sounds good for me anyways. Hope you enjoy 
playing along to this song.


| /  slide up
| \  slide down
| h  hammer-on
| p  pull-off
| ~  vibrato
| +  harmonic
| x  Mute note
Suggest correction
comments
print report bad tab
guest
You may want to rate the tab now too:
select rating
Wanna post a correction for this tab? Suggest correction