Oops, an error
Loading. Please wait.

Paint You Wings bass

1,539 views 3 this week
2 commentsread comments
1 2 3 4 5
2 more votes to show rating
add to favorites
×
Save as Personal and add changes to this tab that will be seen only by you. Learn more ›
×
You can save this tab as Personal to edit and correct it or add notes. All changes will be seen only by you. Learn more »
launch autoscroll
font size
0
reset
guitar tuner
edit
Autoscroll
slow
fast
+/-
esc
set tempo
stop
0:11
Gb|---------------------------------------------------------------------------------|
Db|---------------------------------------------------------------------------------|
Ab|-----------------5---5---5-5-5-----------0-1-0---1---1---1-1-1---1---3---5---7---|
Eb|-7\----------12\-----------------1---1-------------------------------------------|
    1 + 2 + 3 + 4 + 1 + 2 + 3 + 4 + 1 + 2 + 3 + 4 + 1 + 2 + 3 + 4 + 1 + 2 + 3 + 4 + 

Gb|-----------------------------------------------------------------|
Db|-----------------------------------------------------------------|
Ab|-5---5---5-5-5-----------0-1-0---1---1---1-1-1---1---3---5---7---|
Eb|-----------------1---1-------------------------------------------|
    1 + 2 + 3 + 4 + 1 + 2 + 3 + 4 + 1 + 2 + 3 + 4 + 1 + 2 + 3 + 4 + 

0:25
Gb|----------------------------------------------------------------------|
Db|o--------------------------------------------------------------------o|
Ab|o-------------------------------------------------------------1---1--o|
Eb|----1-1-1-1-1-1-1-1-1-1-1-1-1-1-1-1-1-1-1-1-1-1-1-1-1-1-1-1-1---------|x2
       1 + 2 + 3 + 4 + 1 + 2 + 3 + 4 + 1 + 2 + 3 + 4 + 1 + 2 + 3 + 4 +

0:36
Gb|---------------------------------------------------------------------|
Db|o---------------0---------------2-----------------------------------o|
Ab|o---1---1---1-1-----3---3---3-3-----5---5---5-5-5---0---0---0-0-0---o| 
Eb|---------------------------------------------------------------------|x2
       1 + 2 + 3 + 4 + 1 + 2 + 3 + 4 + 1 + 2 + 3 + 4 + 1 + 2 + 3 + 4 + 

0:49
Gb|-------------------------------------------------|
Db|-------------------------------------------------|
Ab|-1-1-1-1-1-1-1-1-3-3-3-3-3-3-3-3-3-3-3-3-3-------|
Eb|-------------------------------------------------|
    1 + 2 + 3 + 4 + 1 + 2 + 3 + 4 + 1 + 2 + 3 + 4 +

0:53 Chorus
Gb|-------------------------------------------------------------------|
Db|o-----------------------------------------------------------------o|
Ab|o-5---5---5-5-5-----------0-1-0---1---1---1-1-1---1---3---5---7---o|
Eb|------------------1---1--------------------------------------------|x2
     1 + 2 + 3 + 4 + 1 + 2 + 3 + 4 + 1 + 2 + 3 + 4 + 1 + 2 + 3 + 4 + 

Gb|-----------------------------------------------------------------|
Db|-----------------------------------------------------------------|
Ab|-1---1---1-1-1---3---3---3-3-3---4---4---4-4-4---5-5-5---5---3---|
Eb|-----------------------------------------------------------------|
    1 + 2 + 3 + 4 + 1 + 2 + 3 + 4 + 1 + 2 + 3 + 4 + 1 + 2 + 3 + 4 + 

Gb|-----------------------------------------------------------------|
Db|-----------------------------------------------------------------|
Ab|-1---1---1-1-1---1---1---1-1-1---3---3---3-3-3---3---3---3-3-3---|
Eb|-----------------------------------------------------------------|
    1 + 2 + 3 + 4 + 1 + 2 + 3 + 4 + 1 + 2 + 3 + 4 + 1 + 2 + 3 + 4 + 

1:17
Gb|-----------------------------------------------------------------|
Db|-----------------------------------------------------------------|
Ab|-5---5---5-5-5-----------0-1-0---1---1---1-1-1---1---3---5---7---|
Eb|-----------------1---1-------------------------------------------|
    1 + 2 + 3 + 4 + 1 + 2 + 3 + 4 + 1 + 2 + 3 + 4 + 1 + 2 + 3 + 4 + 

1:23 Verse
Gb|-----------------------------------------------------------------|
Db|-----------------------------------------------------------------|
Ab|-----------------------------------------------------------1---1-|
Eb|-1-1-1-1-1-1-1-1-1-1-1-1-1-1-1-1-1-1-1-1-1-1-1-1-1-1-1-1-1-------|
    1 + 2 + 3 + 4 + 1 + 2 + 3 + 4 + 1 + 2 + 3 + 4 + 1 + 2 + 3 + 4 +

1:29
Gb|-----------------------------------------------------------------|
Db|-----------------------------------------------------------------|
Ab|-----------------------------------------------------------1---1-|
Eb|-1-1-1-1-1-1-1-1-1-1-1-1-1-1-1-----------------------------------|
    1 + 2 + 3 + 4 + 1 + 2 + 3 + 4 + 1 + 2 + 3 + 4 + 1 + 2 + 3 + 4 +

1:35
Gb|---------------------------------------------------------------------|
Db|o---------------0---------------2-----------------------------------o|
Ab|o---1---1---1-1-----3---3---3-3-----5---5---5-5-5---0---0---0-0-0---o| 
Eb|---------------------------------------------------------------------|x2
       1 + 2 + 3 + 4 + 1 + 2 + 3 + 4 + 1 + 2 + 3 + 4 + 1 + 2 + 3 + 4 + 

1:47
Gb|-------------------------------------------------|
Db|-------------------------------------------------|
Ab|-1-1-1-1-1-1-1-1-3-3-3-3-3-3-3-3-3-3-3-3-3-------|
Eb|-------------------------------------------------|
    1 + 2 + 3 + 4 + 1 + 2 + 3 + 4 + 1 + 2 + 3 + 4 +

1:52 Chorus
Gb|-------------------------------------------------------------------|
Db|o-----------------------------------------------------------------o|
Ab|o-5---5---5-5-5-----------0-1-0---1---1---1-1-1---1---3---5---7---o|
Eb|------------------1---1--------------------------------------------|x2
     1 + 2 + 3 + 4 + 1 + 2 + 3 + 4 + 1 + 2 + 3 + 4 + 1 + 2 + 3 + 4 + 

Gb|-----------------------------------------------------------------|
Db|-----------------------------------------------------------------|
Ab|-1---1---1-1-1---3---3---3-3-3---4---4---4-4-4---5-5-5---5---3---|
Eb|-----------------------------------------------------------------|
    1 + 2 + 3 + 4 + 1 + 2 + 3 + 4 + 1 + 2 + 3 + 4 + 1 + 2 + 3 + 4 + 

Gb|-----------------------------------------------------------------|
Db|-----------------------------------------------------------------|
Ab|-1---1---1-1-1---1---1---1-1-1---3---3---3-3-3---3---3---3-3-----|
Eb|-------------------------------------------------------------1---|
    1 + 2 + 3 + 4 + 1 + 2 + 3 + 4 + 1 + 2 + 3 + 4 + 1 + 2 + 3 + 4 + 

2:16
Gb|-----------------------------------------------------------------|
Db|-----------------------------------------------------------------|
Ab|-----------------------------------------------------------------|
Eb|-----------------------------------------------------------------|
    1 + 2 + 3 + 4 + 1 + 2 + 3 + 4 + 1 + 2 + 3 + 4 + 1 + 2 + 3 + 4 + 

Gb|-----------------------------------------------------------------|
Db|-----------------------------------------------------------------|
Ab|-----------------------------------------------------------------|
Eb|-------------------------6---6\----------------------------------|
    1 + 2 + 3 + 4 + 1 + 2 + 3 + 4 + 1 + 2 + 3 + 4 + 1 + 2 + 3 + 4 + 

Gb|-----------------------------------------------------------------|
Db|-----------------------------------------------------------------|
Ab|-----------------------------0---1-1-1-1-1-1-1-1-3-3-3-3-3-3-3-3-|
Eb|-----------------------------------------------------------------|
    1 + 2 + 3 + 4 + 1 + 2 + 3 + 4 + 1 + 2 + 3 + 4 + 1 + 2 + 3 + 4 +

Gb|---------------------------------|
Db|---------------------------------|
Ab|-3-3-3-3-3-3-3-3-3-3-3-3/-\------|
Eb|---------------------------------|
    1 + 2 + 3 + 4 + 1 + 2 + 3 + 4 +

2:36 Chorus
Gb|-------------------------------------------------------------------|
Db|o-----------------------------------------------------------------o|
Ab|o-5---5---5-5-5-----------0-1-0---1---1---1-1-1---1---3---5---7---o|
Eb|------------------1---1--------------------------------------------|x2
     1 + 2 + 3 + 4 + 1 + 2 + 3 + 4 + 1 + 2 + 3 + 4 + 1 + 2 + 3 + 4 + 

Gb|-----------------------------------------------------------------|
Db|-----------------------------------------------------------------|
Ab|-1---1---1-1-1---3---3---3-3-3---4---4---4-4-4---5-5-5---5---3---|
Eb|-----------------------------------------------------------------|
    1 + 2 + 3 + 4 + 1 + 2 + 3 + 4 + 1 + 2 + 3 + 4 + 1 + 2 + 3 + 4 + 

Gb|-----------------------------------------------------------------|
Db|-----------------------------------------------------------------|
Ab|-1---1---1-1-1---1---1---1-1-1---3---3---3-3-3---3---3---3-3-3---|
Eb|-----------------------------------------------------------------|
    1 + 2 + 3 + 4 + 1 + 2 + 3 + 4 + 1 + 2 + 3 + 4 + 1 + 2 + 3 + 4 + 

3:01 Chorus
Gb|-------------------------------------------------------------------|
Db|o-----------------------------------------------------------------o|
Ab|o-5---5---5-5-5-----------0-1-0---1---1---1-1-1---1---3---5---7---o|
Eb|------------------1---1--------------------------------------------|x2
     1 + 2 + 3 + 4 + 1 + 2 + 3 + 4 + 1 + 2 + 3 + 4 + 1 + 2 + 3 + 4 + 

Gb|-----------------------------------------------------------------|
Db|-----------------------------------------------------------------|
Ab|-1---1---1-1-1---3---3---3-3-3---4---4---4-4-4---5-5-5---5---3---|
Eb|-----------------------------------------------------------------|
    1 + 2 + 3 + 4 + 1 + 2 + 3 + 4 + 1 + 2 + 3 + 4 + 1 + 2 + 3 + 4 + 

Gb|-----------------------------------------------------------------|
Db|-----------------------------------------------------------------|
Ab|-1---1---1-1-1---1---1---1-1-1---3---3---3-3-3---3---3---3-3-3---|
Eb|-----------------------------------------------------------------|
    1 + 2 + 3 + 4 + 1 + 2 + 3 + 4 + 1 + 2 + 3 + 4 + 1 + 2 + 3 + 4 + 

Outro 3:25
Gb|-----------------------------------------------------------------|
Db|-----------------------------------------------------------------|
Ab|-5---5---5-5-5-----------0-1-0---1-------------------------------|
Eb|-----------------1---1-------------------------------------------|
    1 + 2 + 3 + 4 + 1 + 2 + 3 + 4 + 1 + 2 + 3 + 4 + 1 + 2 + 3 + 4 + 

Tabbed By Jack Mills

            
            
Suggest correction
Creating personal tab
Creating personal tab
You can edit any tab online and save it as your Personal.

You can edit, replace or remove any tab part or add personal notes – all changes will be seen only by you.

Personal tabs can be accessed anytime from any device, even offline.
Learn more »
Give kudos to tab author, rate the tab!
1 2 3 4 5
comments
print report bad tab
2 comments total.
0 reply
Jrex1514 72 Nov 03, 2013 02:47 PM

Please make an If These Sheets Were States bass tab

0 reply
JackMills 6,147 Nov 03, 2013 09:57 PM

Sure thing, I'm already making one ^^

guest
You may want to rate the tab now too:
select rating
Wanna post a correction for this tab? Suggest correction