Oops, an error
Loading. Please wait.

Party Scene tab

version 1
version 1

Whole song

Interactive

9,194 views 3 this week
4 commentsread comments
1 2 3 4 5
x 7
add to favorites
×
Save as Personal and add changes to this tab that will be seen only by you. Learn more ›
×
You can save this tab as Personal to edit and correct it or add notes. All changes will be seen only by you. Learn more »
launch autoscroll
font size
0
reset
how to read this tab
guitar tuner
edit
Autoscroll
slow
fast
+/-
esc
set tempo
stop
Author
Difficulty
band: all time low
song: the party scene
album: the party scene (2005)
label: emerald moon records

ok so this is the version of the party scene that all time low had when they were signed 
emerald moon records they are now signed to hopeless records.

*both guitars are distorted

(guitars start after the singer says "hey kid you've got")
intro:

guitar one:
|----------------------------------|
|----------------------------------|
|-----------4-4-4-4-4-4-4-4-4-4----|
|--4-4-4-4--2-2-2-2-2-2-2-2-2-2----|
|--2-2-2-2--0-0-0-0-0-0-0-0-0-0----|
|----------------------------------| x4

guitar two:
|------------------------------------------|
|------------------------------------------|
|------------4--4--4--4--4--4--4--4--4--4--|
|------------------------------------------|
|--2-2-2-2-0--0--0--0--0--0--0--0--0--0----|
|------------------------------------------| x4

before chorus:

guitar one:
|-----------------------------------|
|-----------------------------------|
|-----------------------------------|
|6-6--6-6--6-6--6-6--6-6--6-6--6-6--|
|4-4--4-4--4-4--4-4--4-4--4-4--4-4--|
|-----------------------------------| x2

(im not sure about the little riff but it goes something like this)
guitar two:
|--2-4-2-2---|
|2-----------|
|------------|
|------------|
|------------| x8

chorus:


guitar one and two: (both play the same thing)
|------------------------------------------------|
|------------------------------------------------|
|-----------2-2-2-2-2-2-2-2-2-2-2-2---2-2-2-2-2--|
|--4-4-4-4--2-2-2-2-2-2-2-2-2-2-2-2-4-2-2-2-2-2--|
|--2-2-2-2--0-0-0-0-0-0-0-0-0-0-0-0-2-0-0-0-0-0--|
|------------------------------------------------|

|------------------------------------------------------|
|------------------------------------------------------|
|--------------2---------2-2-2-2-2-2-2-2-2-------------|
|-4-4-4-4--6-2-2-4-4-4-4-2-2-2-2-2-2-2-2-2-4-4-4-4-4-4-|
|-2-2-2-2--4-2-0-2-2-2-2-0-0-0-0-0-0-0-0-0-2-2-2-2-2-2-|
|------------0-----------------------------------------|

|---------------------|
|---------------------|
|2-2-2-2-2-2-2-2-2-4--|
|2-2-2-2-2-2-2-2-2-4--|
|0-0-0-0-0-0-0-0-0-2--|
|---------------------|

verse 2:

guitar one: (hard to explain what this guitar does listen to the song to get it)
|-----------------------------------------|
|-----------------------------------------|
|--------------------2-2-2-2-2-pick slide-|
|6-6-6-6-6-2-2-2-2-2-2-2-2-2-2-x-x-x-x-x-x|
|4-4-4-4-4-2-2-2-2-2-0-0-0-0-0-x-x-x-x-x-x|
|----------0-0-0-0-0----------------------|

|-----------------------------------------|
|-----------------------------------------|
|--------------------2-2-2-2-2------------|
|6-6-6-6-6-2-2-2-2-2-2-2-2-2-2-4-4-4-4-4--|
|4-4-4-4-4-2-2-2-2-2-0-0-0-0-0-2-2-2-2-2--|
|----------0-0-0-0-0----------------------|

guitar two: (plays the same thing but with a steady rythm and palm muted also listen to 
song to get this guitar two plays faster than guitar one)
|-----------------------------------------------------------------------|
|-----------------------------------------------------------------------|
|------------------------------------2-2-2-2-2-2-2-2-2------------------|
|6-6-6-6-6-6-6-6-6-2-2-2-2-2-2-2-2-2-2-2-2-2-2-2-2-2-2-4-4-4-4-4-4-4-4-4|
|4-4-4-4-4-4-4-4-4-2-2-2-2-2-2-2-2-2-0-0-0-0-0-0-0-0-0-2-2-2-2-2-2-2-2-2|
|------------------0-0-0-0-0-0-0-0-0------------------------------------| x2

pre chorus:
|-----------------------------------------------------------------------|
|-----------------------------------------------------------------------|
|------------------------------------2-2-2-2-2-2-2-2-2------------------|
|6-6-6-6-6-6-6-6-6-2-2-2-2-2-2-2-2-2-2-2-2-2-2-2-2-2-2-4-4-4-4-4-4-4-4-4|
|4-4-4-4-4-4-4-4-4-2-2-2-2-2-2-2-2-2-0-0-0-0-0-0-0-0-0-2-2-2-2-2-2-2-2-2|
|------------------0-0-0-0-0-0-0-0-0------------------------------------|


chorus:

guitar one and two: (both play the same thing)
|--------|
|--------|
|-----2--|
|-6-2-2--|
|-4-2-0--|
|---0----|

|------------------------------------------------|
|------------------------------------------------|
|-----------2-2-2-2-2-2-2-2-2-2-2-2---2-2-2-2-2--|
|--4-4-4-4--2-2-2-2-2-2-2-2-2-2-2-2-4-2-2-2-2-2--|
|--2-2-2-2--0-0-0-0-0-0-0-0-0-0-0-0-2-0-0-0-0-0--|
|------------------------------------------------|

|------------------------------------------------------|
|------------------------------------------------------|
|--------------2---------2-2-2-2-2-2-2-2-2-------------|
|-4-4-4-4--6-2-2-4-4-4-4-2-2-2-2-2-2-2-2-2-4-4-4-4-4-4-|
|-2-2-2-2--4-2-0-2-2-2-2-0-0-0-0-0-0-0-0-0-2-2-2-2-2-2-|
|------------0-----------------------------------------|

|---------------------|
|---------------------|
|2-2-2-2-2-2-2-2-2-4--|
|2-2-2-2-2-2-2-2-2-4--|
|0-0-0-0-0-0-0-0-0-2--|
|---------------------|

after chorus:

guitar one: (palm muted)
|-----------------------------------------------------------------------|
|-----------------------------------------------------------------------|
|------------------------------------2-2-2-2-2-2-2-2-2------------------|
|6-6-6-6-6-6-6-6-6-2-2-2-2-2-2-2-2-2-2-2-2-2-2-2-2-2-2-4-4-4-4-4-4-4-4-4|
|4-4-4-4-4-4-4-4-4-2-2-2-2-2-2-2-2-2-0-0-0-0-0-0-0-0-0-2-2-2-2-2-2-2-2-2|
|------------------0-0-0-0-0-0-0-0-0------------------------------------| x2

guitar two: (comes in after guitar one does there part once)
|-----------------------------------------|
|-----------------------------------------|
|--------------------2-2-2-2-2------------|
|6-6-6-6-6-2-2-2-2-2-2-2-2-2-2-4-4-4-4-4--|
|4-4-4-4-4-2-2-2-2-2-0-0-0-0-0-2-2-2-2-2--|
|----------0-0-0-0-0----------------------|

bridge:

guitar one:
|-4-------------------7h-5-4\-2-0-0h2-4h-2-0-4h-5-7-7h-5-4-0-12-0-5h-4-2-|
|--4-5-5-/7-\5-4h-2-0----------------------------------------------------|
|------------------------------------------------------------------------|
|------------------------------------------------------------------------|
|------------------------------------------------------------------------|
|------------------------------------------------------------------------|

|-4h-5-7-7h-5-4-0-12-0-5h-4-2-4h-5-7-7h-5-4-0-12-0-5h-4-2-|
|---------------------------------------------------------|
|---------------------------------------------------------|
|---------------------------------------------------------|
|---------------------------------------------------------|
|---------------------------------------------------------|

guitar two:
|-----------------------------------------------------------------------|
|-----------------------------------------------------------------------|
|------------------------------------2-2-2-2-2-2-2-2-2------------------|
|6-6-6-6-6-6-6-6-6-2-2-2-2-2-2-2-2-2-2-2-2-2-2-2-2-2-2-4-4-4-4-4-4-4-4-4|
|4-4-4-4-4-4-4-4-4-2-2-2-2-2-2-2-2-2-0-0-0-0-0-0-0-0-0-2-2-2-2-2-2-2-2-2|
|------------------0-0-0-0-0-0-0-0-0------------------------------------|

|-----------------------------------------------------------------------|
|-----------------------------------------------------------------------|
|------------------------------------2-2-2-2-2-2-2-2-2------------------|
|6-6-6-6-6-6-6-6-6-2-2-2-2-2-2-2-2-2-2-2-2-2-2-2-2-2-2-4-4-4-4-4-4-4-4-4|
|4-4-4-4-4-4-4-4-4-2-2-2-2-2-2-2-2-2-0-0-0-0-0-0-0-0-0-2-2-2-2-2-2-2-2-2|
|------------------0-0-0-0-0-0-0-0-0------------------------------------|

chorus:

guitar one and two: (both play the same thing)
|--------|
|--------|
|-----2--|
|-6-2-2--|
|-4-2-0--|
|---0----|

|------------------------------------------------|
|------------------------------------------------|
|-----------2-2-2-2-2-2-2-2-2-2-2-2---2-2-2-2-2--|
|--4-4-4-4--2-2-2-2-2-2-2-2-2-2-2-2-4-2-2-2-2-2--|
|--2-2-2-2--0-0-0-0-0-0-0-0-0-0-0-0-2-0-0-0-0-0--|
|------------------------------------------------|

|------------------------------------------------------|
|------------------------------------------------------|
|--------------2---------2-2-2-2-2-2-2-2-2-------------|
|-4-4-4-4--6-2-2-4-4-4-4-2-2-2-2-2-2-2-2-2-4-4-4-4-4-4-|
|-2-2-2-2--4-2-0-2-2-2-2-0-0-0-0-0-0-0-0-0-2-2-2-2-2-2-|
|------------0-----------------------------------------|

|---------------------|
|---------------------|
|2-2-2-2-2-2-2-2-2-4--|
|2-2-2-2-2-2-2-2-2-4--|
|0-0-0-0-0-0-0-0-0-2--|
|---------------------|

ending:
guitar one:
|-----------------------------------|
|-----------------------------------|
|-----------------------------------|
|6-6--6-6--6-6--6-6--6-6--6-6--6-6--|
|4-4--4-4--4-4--4-4--4-4--4-4--4-4--|
|-----------------------------------| x2


guitar two:
|--2-4-2-2---|
|2-----------|
|------------|
|------------|
|------------| x8

guitar one and two end on:

|---|
|---|
|6--|
|6--|
|4--|
|---|

| /  slide up
| \  slide down
| h  hammer-on
| p  pull-off
| ~  vibrato
| +  harmonic
| x  Mute note

            
            
Suggest correction
Creating personal tab
Creating personal tab
You can edit any tab online and save it as your Personal.

You can edit, replace or remove any tab part or add personal notes – all changes will be seen only by you.

Personal tabs can be accessed anytime from any device, even offline.
Learn more »
comments
print report bad tab
4 comments total. Showing first comments.
0 reply
tommycore 10 Jul 08, 2006 08:04 AM

another song tabbed for all time low very good some stuff a little off but no ones perfect

0 reply
Bair 2,236 May 12, 2007 10:30 AM

I'm not quite sure that this should be an intermediate but good work anyways

-1 reply
aaronrock01 217 Sep 10, 2008 03:08 PM

|----2-2-4-4-2-2-|
|2-2-------------|
|----------------|
|----------------| This is that little riff :)
|----------------|

guest
You may want to rate the tab now too:
select rating
Wanna post a correction for this tab? Suggest correction