Oops, an error
Loading. Please wait.

Remembering Sunday Chords

9,351 views 177 this week
1 commentread comment
1 2 3 4 5
1 last vote to show rating
add to favorites
launch autoscroll
font size
0
reset
transpose
0
reset
display chords
guitar tuner
Autoscroll
slow
fast
+/-
esc
set tempo
stop
Help us to improve Ultimate-Guitar.com Take our survey!
×
Author
Difficulty
Capo
novice
2nd fret
All Time Low - Remembering Sunday (Acoustic Guitar)
*Nicola_Rizzo* *16/03/2012* 

I tried to make this tab more accurate possible :)

Standard tuning Capo 2

Rithym: 6/8 [1 2 3 4 5 6] 
|1---2---3---4---5---6---| 

Intro: 
 C
 1   2   3   4   5   6   1   2   3   4   5   6 
|0---0-0-0-0-0---0-0-0-0-0---0-0-0-0-0---0-0-0-0-| 
|0---0-0-0-0-0---0-0-0-0-0---0-0-0-0-0---0-0-0-0-| 
|0---0-0-0-0-0---0-0-0-0-0---0-0-0-0-0---0-0-0-0-| 
|2---2-2-2-2-2---2-2-2-2-2---2-2-2-2-2---2-2-2-2-| 
|3---3-3-3-3-3---3-3-3-3-3---3-3-3-3-3---3-3-3-3-| 
|x---x-x-x-x-x---x-x-x-x-x---x-x-x-x-x---x-x-x-x-| 

Em 
|0---0-0-0-0-0---0-0-0-0-0---0-0-0-0-0---0-0-0-0-| 
|0---0-0-0-0-0---0-0-0-0-0---0-0-0-0-0---0-0-0-0-| 
|0---0-0-0-0-0---0-0-0-0-0---0-0-0-0-0---0-0-0-0-| 
|2---2-2-2-2-2---2-2-2-2-2---2-2-2-2-2---2-2-2-2-| 
|2---2-2-2-2-2---2-2-2-2-2---2-2-2-2-2---2-2-2-2-| 
|0---0-0-0-0-0---0-0-0-0-0---0-0-0-0-0---0-0-0-0-| 

C? 
|3---3-3-3-3-3---3-3-3-3-3---3-3-3-3-3---3-3-3-3-|
|3---3-3-3-3-3---3-3-3-3-3---3-3-3-3-3---3-3-3-3-| 
|0---0-0-0-0-0---0-0-0-0-0---0-0-0-0-0---0-0-0-0-| 
|2---2-2-2-2-2---2-2-2-2-2---2-2-2-2-2---2-2-2-2-| 
|3---3-3-3-3-3---3-3-3-3-3---3-3-3-3-3---3-3-3-3-| 
|x---x-x-x-x-x---x-x-x-x-x---x-x-x-x-x---x-x-x-x-|

 A 
|3---3-3-3-3-3---3-3-3-3-3-----------------------| 
|2---2-2-2-2-2---2-2-2-2-2-----------------------| 
|0---0-0-0-0-0---0-0-0-0-0-----------------------| 
|2---2-2-2-2-2---2-2-2-2-2-----------------------| 
|0---0-0-0-0-0---0-0-0-0-0-----------------------| 
|x---x-x-x-x-x---x-x-x-x-x-----------------------| 


Verse: The 1st phrase played like the intro 2nd one: 
 C 
|0---0-0-0-0-0---0-0-0-0-0---0-0-0-0-0---0-0-0-0-| 
|0---0-0-0-0-0---0-0-0-0-0---0-0-0-0-0---0-0-0-0-| 
|0---0-0-0-0-0---0-0-0-0-0---0-0-0-0-0---0-0-0-0-| 
|2---2-2-2-2-2---2-2-2-2-2---2-2-2-2-2---2-2-2-2-| 
|3---3-3-3-3-3---3-3-3-3-3---3-3-3-3-3---3-3-3-3-| 
|x---x-x-x-x-x---x-x-x-x-x---x-x-x-x-x---x-x-x-x-| 
 
 D 
|0---0-0-0-0-0---0-0-0-0-0---0-0-0-0-0---0-0-0-0-| 
|3---3-3-3-3-3---3-3-3-3-3---3-3-3-3-3---3-3-3-3-| 
|2---2-2-2-2-2---2-2-2-2-2---2-2-2-2-2---2-2-2-2-| 
|0---0-0-0-0-0---0-0-0-0-0---0-0-0-0-0---0-0-0-0-| 
|0---0-0-0-0-0---0-0-0-0-0---0-0-0-0-0---0-0-0-0-| 
|x---x-x-x-x-x---x-x-x-x-x---x-x-x-x-x---x-x-x-x-|

 Em 
|0---0-0-0-0-0---0-0-0-0-0---0-0-0-0-0---0-0-0-0-|
|0---0-0-0-0-0---0-0-0-0-0---0-0-0-0-0---0-0-0-0-| 
|0---0-0-0-0-0---0-0-0-0-0---0-0-0-0-0---0-0-0-0-| 
|2---2-2-2-2-2---2-2-2-2-2---2-2-2-2-2---2-2-2-2-| 
|2---2-2-2-2-2---2-2-2-2-2---2-2-2-2-2---2-2-2-2-| 
|0---0-0-0-0-0---0-0-0-0-0---0-0-0-0-0---0-0-0-0-| 

 A 
|3---3-3-3-3-3---3-3-3-3-3---3-3-3-3-3---3-3-3-3-| 
|2---2-2-2-2-2---2-2-2-2-2---2-2-2-2-2---2-2-2-2-| 
|0---0-0-0-0-0---0-0-0-0-0---0-0-0-0-0---0-0-0-0-| 
|2---2-2-2-2-2---2-2-2-2-2---2-2-2-2-2---2-2-2-2-| 
|0---0-0-0-0-0---0-0-0-0-0---0-0-0-0-0---0-0-0-0-| 
|x---x-x-x-x-x---x-x-x-x-x---x-x-x-x-x---x-x-x-x-| 


Pre-chorus: 
C 
|------------------------------------------------| 
|------------------------------------------------| 
|------------------------------------------------| 
|2---2---2---2---2---2---2---2---2---2---2---2---| 
|3---3---3---3---3---3---3---3---3---3---3---3---| 
|------------------------------------------------| 

 D 
|------------------------------------------------| 
|------------------------------------------------| 
|------------------------------------------------| 
|4---4---4---4---4---4---4---4---4---4---4---4---| 
|5---5---5---5---5---5---5---5---5---5---5---5---| 
|------------------------------------------------| 

 Em 
|------------------------------------0---0-0-0-0-| 
|------------------------------------0---0-0-0-0-| 
|------------------------------------0---0-0-0-0-| 
|5---5---5---5---5---5---5---5---5---5---5-5-5-5-| 
|7---7---7---7---7---7---7---7---7---7---7-7-7-7-| 
|------------------------------------0---0-0-0-0-| 

 A 
|3---3-3-3-3-3---3-3-3-3-3---3-3-3-3-3---3-3-3-3-| 
|2---2-2-2-2-2---2-2-2-2-3---3-3-3-3-2---2-2-2-2-| 
|0---0-0-0-0-0---0-0-0-0-0---0-0-0-0-0---0-0-0-0-| 
|2---2-2-2-2-2---2-2-2-2-2---2-2-2-2-2---2-2-2-2-| 
|0---0-0-0-0-0---0-0-0-0-0---0-0-0-0-0---0-0-0-0-| 
|x---x-x-x-x-x---x-x-x-x-x---x-x-x-x-x---x-x-x-x-| 


Chorus: 
G (actually, in the song they play G chord |3 0 0 0 2 3| but I think it's better this way) 
|3---3-3-3-3-3---3-3-3-3-3---3-3-3-3-3---3-3-3-3-| 
|3---3-3-3-3-3---3-3-3-3-3---3-3-3-3-3---3-3-3-3-| 
|0---0-0-0-0-0---0-0-0-0-0---0-0-0-0-0---0-0-0-0-| 
|0---0-0-0-0-0---0-0-0-0-0---0-0-0-0-0---0-0-0-0-| 
|2---2-2-2-2-2---2-2-2-2-2---2-2-2-2-2---2-2-2-2-| 
|3---3-3-3-3-3---3-3-3-3-3---3-3-3-3-3---3-3-3-3-| 

 C? 
|3---3-3-3-3-3---3-3-3-3-3---3-3-3-3-3---3-3-3-3-| 
|3---3-3-3-3-3---3-3-3-3-3---3-3-3-3-3---3-3-3-3-| 
|0---0-0-0-0-0---0-0-0-0-0---0-0-0-0-0---0-0-0-0-| 
|2---2-2-2-2-2---2-2-2-2-2---2-2-2-2-2---2-2-2-2-| 
|3---3-3-3-3-3---3-3-3-3-3---3-3-3-3-3---3-3-3-3-| 
|x---x-x-x-x-x---x-x-x-x-x---x-x-x-x-x---x-x-x-x-| 
 
 A 
|3---3-3-3-3-3---3-3-3-3-3---3-3-3-3-3---3-3-3-3-| 
|2---2-2-2-2-2---2-2-2-2-2---2-2-2-2-2---2-2-2-2-| 
|0---0-0-0-0-0---0-0-0-0-0---0-0-0-0-0---0-0-0-0-| 
|2---2-2-2-2-2---2-2-2-2-2---2-2-2-2-2---2-2-2-2-| 
|0---0-0-0-0-0---0-0-0-0-0---0-0-0-0-0---0-0-0-0-| 
|x---x-x-x-x-x---x-x-x-x-x---x-x-x-x-x---x-x-x-x-| 

 C? 
|3---3-3-3-3-3---3-3-3-3-3---3-3-3-3-3-----------| 
|3---3-3-3-3-3---3-3-3-3-3---3-3-3-3-3-----------| 
|0---0-0-0-0-0---0-0-0-0-0---0-0-0-0-0-----------| 
|2---2-2-2-2-2---2-2-2-2-2---2-2-2-2-2-----------| 
|3---3-3-3-3-3---3-3-3-3-3---3-3-3-3-3-----------| 
|x---x-x-x-x-x---x-x-x-x-x---x-x-x-x-x-----------| 
All this (4 chords) x2 (second time last chord don't stop) 

Bridge 1: 

 C 
|0---0-0-0-0-0---0-0-0-0-0---0-0-0-0-0---0-0-0-0-| 
|0---0-0-0-0-0---0-0-0-0-0---0-0-0-0-0---0-0-0-0-| 
|0---0-0-0-0-0---0-0-0-0-0---0-0-0-0-0---0-0-0-0-| 
|2---2-2-2-2-2---2-2-2-2-2---2-2-2-2-2---2-2-2-2-| 
|3---3-3-3-3-3---3-3-3-3-3---3-3-3-3-3---3-3-3-3-| 
|x---x-x-x-x-x---x-x-x-x-x---x-x-x-x-x---x-x-x-x-| 


 D 
|0---0-0-0-0-0---0-0-0-0-0---0-0-0-0-0---0-0-0-0-| 
|5---5-5-5-5-5---5-5-5-5-5---5-5-5-5-5---5-5-5-5-| 
|0---0-0-0-0-0---0-0-0-0-0---0-0-0-0-0---0-0-0-0-| 
|4---4-4-4-4-4---4-4-4-4-4---4-4-4-4-4---4-4-4-4-| 
|5---5-5-5-5-5---5-5-5-5-5---5-5-5-5-5---5-5-5-5-| 
|x---x-x-x-x-x---x-x-x-x-x---x-x-x-x-x---x-x-x-x-| 

 Em 
|0---0-0-0-0-0---0-0-0-0-0---0-0-0-0-0---0-0-0-0-| 
|8---8-8-8-8-8---8-8-8-8-8---8-8-8-8-8---8-8-8-8-| 
|0---0-0-0-0-0---0-0-0-0-0---0-0-0-0-0---0-0-0-0-| 
|5---5-5-5-5-5---5-5-5-5-5---5-5-5-5-5---5-5-5-5-| 
|7---7-7-7-7-7---7-7-7-7-7---7-7-7-7-7---7-7-7-7-| 
|0---0-0-0-0-0---0-0-0-0-0---0-0-0-0-0---0-0-0-0-| 

 Em (again) 
|0---0-0-0-0-0---0-0-0-0-0---0-0-0-0-0---0-0-0-0-| 
|8---8-8-8-8-8---8-8-8-8-8---8-8-8-8-8---8-8-8-8-| 
|0---0-0-0-0-0---0-0-0-0-0---0-0-0-0-0---0-0-0-0-| 
|5---5-5-5-5-5---5-5-5-5-5---5-5-5-5-5---5-5-5-5-| 
|7---7-7-7-7-7---7-7-7-7-7---7-7-7-7-7---7-7-7-7-| 
|0---0-0-0-0-0---0-0-0-0-0---0-0-0-0-0---0-0-0-0-| 

 C 
|0---0-0-0-0-0---0-0-0-0-0---0-0-0-0-0---0-0-0-0-| 
|0---0-0-0-0-0---0-0-0-0-0---0-0-0-0-0---0-0-0-0-| 
|0---0-0-0-0-0---0-0-0-0-0---0-0-0-0-0---0-0-0-0-| 
|2---2-2-2-2-2---2-2-2-2-2---2-2-2-2-2---2-2-2-2-| 
|3---3-3-3-3-3---3-3-3-3-3---3-3-3-3-3---3-3-3-3-| 
|x---x-x-x-x-x---x-x-x-x-x---x-x-x-x-x---x-x-x-x-| 

 D 
|0---0-0-0-0-0---0-0-0-0-0---0-0-0-0-0---0-0-0-0-| 
|5---5-5-5-5-5---5-5-5-5-5---5-5-5-5-5---5-5-5-5-| 
|0---0-0-0-0-0---0-0-0-0-0---0-0-0-0-0---0-0-0-0-| 
|4---4-4-4-4-4---4-4-4-4-4---4-4-4-4-4---4-4-4-4-| 
|5---5-5-5-5-5---5-5-5-5-5---5-5-5-5-5---5-5-5-5-| 
|x---x-x-x-x-x---x-x-x-x-x---x-x-x-x-x---x-x-x-x-| 


 Em 
|0---0-0-0-0-0---0-0-0-0-0---0-0-0-0-0---0-0-0-0-| 
|8---8-8-8-8-8---8-8-8-8-8---8-8-8-8-8---8-8-8-8-| 
|0---0-0-0-0-0---0-0-0-0-0---0-0-0-0-0---0-0-0-0-| 
|5---5-5-5-5-5---5-5-5-5-5---5-5-5-5-5---5-5-5-5-| 
|7---7-7-7-7-7---7-7-7-7-7---7-7-7-7-7---7-7-7-7-| 
|0---0-0-0-0-0---0-0-0-0-0---0-0-0-0-0---0-0-0-0-| 


 D 
|0---0-0-0-0-0---0-0-0-0-0---0-0-0-0-0---0-0-0-0-| 
|3---3-3-3-3-3---3-3-3-3-3---3-3-3-3-3---3-3-3-3-| 
|2---2-2-2-2-2---2-2-2-2-2---2-2-2-2-2---2-2-2-2-| 
|0---0-0-0-0-0---0-0-0-0-0---0-0-0-0-0---0-0-0-0-| 
|0---0-0-0-0-0---0-0-0-0-0---0-0-0-0-0---0-0-0-0-| 
|x---x-x-x-x-x---x-x-x-x-x---x-x-x-x-x---x-x-x-x-| 


Chorus Bridge 2(YES It is different): 
 Em 
|0---0-0-0-0-0---0-0-0-0-0---0-0-0-0-0---0-0-0-0-| 
|0---0-0-0-0-0---0-0-0-0-0---0-0-0-0-0---0-0-0-0-| 
|0---0-0-0-0-0---0-0-0-0-0---0-0-0-0-0---0-0-0-0-| 
|2---2-2-2-2-2---2-2-2-2-2---2-2-2-2-2---2-2-2-2-| 
|2---2-2-2-2-2---2-2-2-2-2---2-2-2-2-2---2-2-2-2-| 
|0---0-0-0-0-0---0-0-0-0-0---0-0-0-0-0---0-0-0-0-| 

 C 
|0---0-0-0-0-0---0-0-0-0-0---0-0-0-0-0---0-0-0-0-| 
|0---0-0-0-0-0---0-0-0-0-0---0-0-0-0-0---0-0-0-0-| 
|0---0-0-0-0-0---0-0-0-0-0---0-0-0-0-0---0-0-0-0-| 
|2---2-2-2-2-2---2-2-2-2-2---2-2-2-2-2---2-2-2-2-| 
|3---3-3-3-3-3---3-3-3-3-3---3-3-3-3-3---3-3-3-3-| 
|x---x-x-x-x-x---x-x-x-x-x---x-x-x-x-x---x-x-x-x-| 

 G 
|3---3-3-3-3-3---3-3-3-3-3---3-3-3-3-3---3-3-3-3-| 
|3---3-3-3-3-3---3-3-3-3-3---3-3-3-3-3---3-3-3-3-| 
|0---0-0-0-0-0---0-0-0-0-0---0-0-0-0-0---0-0-0-0-| 
|0---0-0-0-0-0---0-0-0-0-0---0-0-0-0-0---0-0-0-0-| 
|2---2-2-2-2-2---2-2-2-2-2---2-2-2-2-2---2-2-2-2-| 
|3---3-3-3-3-3---3-3-3-3-3---3-3-3-3-3---3-3-3-3-| 

 D 
|2---2-2-2-2-2---2-2-2-2-2---2-2-2-2-2---2-2-2-2-| 
|3---3-3-3-3-3---3-3-3-3-3---3-3-3-3-3---3-3-3-3-| 
|2---2-2-2-2-2---2-2-2-2-2---2-2-2-2-2---2-2-2-2-| 
|0---0-0-0-0-0---0-0-0-0-0---0-0-0-0-0---0-0-0-0-| 
|0---0-0-0-0-0---0-0-0-0-0---0-0-0-0-0---0-0-0-0-| 
|x---x-x-x-x-x---x-x-x-x-x---x-x-x-x-x---x-x-x-x-| 
These chords once again! 
Chorus Ending: Like the pre-chorus, but It finishes before (listen to the song)
Suggest correction
Give kudos to tab author, rate the tab!
1 2 3 4 5
comments
print report bad tab
1 comment total.
0 reply
cdmosser 10 Sep 18, 2013 02:46 AM

Check out my cover of this song! http://www.youtube.com/watch?v=SISgR-I0HBQ

guest
You may want to rate the tab now too:
select rating
Wanna post a correction for this tab? Suggest correction