Oops, an error
Loading. Please wait.

Return The Favor tab

version 4
version 4

Whole song

163 views 3 this week
no commentswrite comment
1 2 3 4 5
3 more votes to show rating
add to favorites
×
Save as Personal and add changes to this tab that will be seen only by you. Learn more ›
×
You can save this tab as Personal to edit and correct it or add notes. All changes will be seen only by you. Learn more »
launch autoscroll
font size
0
reset
how to read this tab
guitar tuner
edit
Autoscroll
slow
fast
+/-
esc
set tempo
stop
Author
About this tab version
Mine include the arpeggios and a link to my cover to show my accuracy. Was this info helpful? Yes No
All Time Low - Return the Favor
Tuning - Standard
Want to easily follow the tabs? Watch my cover! 
https://www.youtube.com/watch?v=12f5Tt2Vnj8


[Intro]

E|------------------------------------------------------------------------|
B|------------------------------------------------------------------------|
G|-6~--6-7-9-12-10~--10-9-7--5h7p5-4~--4-5-7-10-9------------------10~-9~-|
D|------------------------------------------------10------------12--------|
A|---------------------------------------------------10------11-----------|
E|-5~--5---9----10~--10---5--------3~--3---7------------8-12--------------|


[Verse]

Oh no, look what you've done..
E|------------------------------------------------------|
B|------------------------------------------------------|
G|------------------------------------------------------|
D|----------------7-------------------0h3--5--5--9------|
A|--7--------7h8--5----8--7--5------2------3--3--7--7~--|
E|--5----5h8-----------------3----3--------------0------|

You said, 'just friends, and no strings'..
E|-----------------------------------------------------|
B|-----------------------------------------------------|
G|-----------------------------------------------------|
D|----------------7-------------------0h3--------------|
A|--7--------7h8--5----8--7--5------2------3--3--2--2--|
E|--5----5h8-----------------3----3--------1--1--0--0--|

Won't you let me know?
E|---------------------------------|
B|---------------------------------|
G|---------------------------------|
D|-3-3-3-3-3-3-3-3-2-2-2-2-2-2-2-2-|
A|-3-3-3-3-3-3-3-3-2-2-2-2-2-2-2-2-|
E|-1-1-1-1-1-1-1-1-0-0-0-0-0-0-0-0-|
   - - - - - - - - - - - - - - - -


[Chorus]

How do I get away?
    Am   Dm     G     C    E     
E|--0--|--1--|--3--|--0--|--0--|
B|--1--|--3--|--0--|--1--|--0--|
G|--2--|--2--|--0--|--0--|--1--|
D|--2--|--0--|--0--|--2--|--2--|
A|--0--|--0--|--2--|--3--|--2--|
E|-----|-----|--3--|-----|--0--|

And what do you want me to do?
    A    Dm     G     C     E     
E|--0--|--1--|--3--|--0--|--0--|
B|--2--|--3--|--0--|--1--|--0--|
G|--2--|--2--|--0--|--0--|--1--|
D|--2--|--0--|--0--|--2--|--2--|
A|--0--|--0--|--2--|--3--|--2--|
E|-----|-----|--3--|-----|--0--|


[Verse]

Did you forget what I said?
E|------------------------------------------------------|
B|------------------------------------------------------|
G|------------------------------------------------------|
D|----------------7-------------------0h3--5--5--9------|
A|--7--------7h8--5----8--7--5------2------3--3--7--7~--|
E|--5----5h8-----------------3----3--------------0------|

Whether you and me could ever be, we'll never see, no.
E|-----------------------------------------------------|
B|-----------------------------------------------------|
G|-----------------------------------------------------|
D|----------------7-------------------0h3--------------|
A|--7--------7h8--5----8--7--5------2------3--3--2--2--|
E|--5----5h8-----------------3----3--------1--1--0--0--|

Won't you let me know?
E|---------------------------------|
B|---------------------------------|
G|---------------------------------|
D|-3-3-3-3-3-3-3-3-2-2-2-2-2-2-2-2-|
A|-3-3-3-3-3-3-3-3-2-2-2-2-2-2-2-2-|
E|-1-1-1-1-1-1-1-1-0-0-0-0-0-0-0-0-|
   - - - - - - - - - - - 


[Chorus]

How do I get away?
    Am   Dm     G     C     E     
E|--0--|--1--|--3--|--0--|--0--|
B|--1--|--3--|--0--|--1--|--0--|
G|--2--|--2--|--0--|--0--|--1--|
D|--2--|--0--|--0--|--2--|--2--|
A|--0--|--0--|--2--|--3--|--2--|
E|-----|-----|--3--|-----|--0--|

And what do you want me to do?
    A    Dm     G     C     E     
E|--0--|--1--|--3--|--0--|--0--|
B|--2--|--3--|--0--|--1--|--0--|
G|--2--|--2--|--0--|--0--|--1--|
D|--2--|--0--|--0--|--2--|--2--|
A|--0--|--0--|--2--|--3--|--2--|
E|-----|-----|--3--|-----|--0--|


You can play the chords above again or you can play the arpeggios below.

How do I get away?
E|----------12-15-12----------|
B|-------13----------13-------|
G|----14----------------14----| x2
D|-14----------------------14-|
A|----------------------------|
D|----------------------------|

E|----------13-17-13----------|
B|-------15----------15-------|
G|----14----------------14----| x2
D|-14----------------------14-|
A|----------------------------|
D|----------------------------|

E|----------15-19-15----------|
B|-------17----------17-------|
G|----16----------------16----| x2
D|-17----------------------17-|
A|----------------------------|
D|----------------------------|

E|----------13-17-13----------|
B|-------15----------15-------|
G|----14----------------14----|
D|-14----------------------14-|
A|----------------------------|
D|----------------------------|

E|----------12-15-12----------|
B|-------13----------13-------|
G|----14----------------14----|
D|-14----------------------14-|
A|----------------------------|
D|----------------------------|


This part is not originally played by a guitar, but it's always fun to play along.

Are you gonna throw it all away?
E|----------------------------------|
B|----------------------------------|
G|----------------------------------|
D|----9-10-----9-10----9-10----9-10-|
A|-12-------10-------9-------8------|
E|----------------------------------|

And maybe it's all pretend and the game should end
E|------------------------------|
B|------------------------------|
G|------------------------------|
D|--2----1----2----2----1----2--|
A|--2----2----2----2----2----2--|
E|--0----0----0----0----0----0--|


[Chorus]

How do I get away?
    Am   Dm     G     C     E     
E|--0--|--1--|--3--|--0--|--0--|
B|--1--|--3--|--0--|--1--|--0--|
G|--2--|--2--|--0--|--0--|--1--|
D|--2--|--0--|--0--|--2--|--2--|
A|--0--|--0--|--2--|--3--|--2--|
E|-----|-----|--3--|-----|--0--|

And what do you want me to do?
    A    Dm     G     C     E     
E|--0--|--1--|--3--|--0--|--0--|
B|--2--|--3--|--0--|--1--|--0--|
G|--2--|--2--|--0--|--0--|--1--|
D|--2--|--0--|--0--|--2--|--2--|
A|--0--|--0--|--2--|--3--|--2--|
E|-----|-----|--3--|-----|--0--|

How do I get away?
    Am   Dm     G     C     E     
E|--0--|--1--|--3--|--0--|--0--|
B|--1--|--3--|--0--|--1--|--0--|
G|--2--|--2--|--0--|--0--|--1--|
D|--2--|--0--|--0--|--2--|--2--|
A|--0--|--0--|--2--|--3--|--2--|
E|-----|-----|--3--|-----|--0--|

What do you want me to do?
    A    Dm     G     C     E     
E|--0--|--1--|--3--|--0--|--0--|
B|--2--|--3--|--0--|--1--|--0--|
G|--2--|--2--|--0--|--0--|--1--|
D|--2--|--0--|--0--|--2--|--2--|
A|--0--|--0--|--2--|--3--|--2--|
E|-----|-----|--3--|-----|--0--|


[Outro]

You can play this during the piano 
    Am   Dm     G    C    E     Am    
E|--0--|--1--|--3--|--0--|--0--|--0--|
B|--1--|--3--|--0--|--1--|--0--|--1--|
G|--2--|--2--|--0--|--0--|--1--|--2--|
D|--2--|--0--|--0--|--2--|--2--|--2--|
A|--0--|--0--|--2--|--3--|--2--|--0--|
E|-----|-----|--3--|-----|--0--|-----|



************************************

| h  Hammer-on
| p  Pull-off
| ~  Vibrato

************************************

            
            
Suggest correction
Creating personal tab
Creating personal tab
You can edit any tab online and save it as your Personal.

You can edit, replace or remove any tab part or add personal notes – all changes will be seen only by you.

Personal tabs can be accessed anytime from any device, even offline.
Learn more »
Give kudos to tab author, rate the tab!
1 2 3 4 5
comments
print report bad tab
guest
You may want to rate the tab now too:
select rating
Wanna post a correction for this tab? Suggest correction