Oops, an error
Loading. Please wait.

Running From Lions intro tab

version 1
version 1

Intro

Whole song

Interactive

17,526 views 1 this week
2 commentsread comments
1 2 3 4 5
x 4
add to favorites
×
Save as Personal and add changes to this tab that will be seen only by you. Learn more ›
×
You can save this tab as Personal to edit and correct it or add notes. All changes will be seen only by you. Learn more »
launch autoscroll
font size
0
reset
how to read this tab
guitar tuner
edit
Autoscroll
slow
fast
+/-
esc
set tempo
stop
----------------------------------------------------------------------------
                             Running From Lions - All Time Low
----------------------------------------------------------------------------

Tuning:

e|--------------------------|
B|--------------------------|
G|--6-6-6-6-7---------------|
D|------------7-7-7-9-9-9-9-| x8
A|--4-4-4-4-5-7-7-7-9-9-9-9-|
E|------------5-5-5-7-7-7-7-|

e|------------|
B|-12-9-10--9-|
G|--------11--| x4
D|------------|
A|------------|
E|------------|

i havent found out the entire song yet..this is really accurate though

            
            
Suggest correction
Creating personal tab
Creating personal tab
You can edit any tab online and save it as your Personal.

You can edit, replace or remove any tab part or add personal notes – all changes will be seen only by you.

Personal tabs can be accessed anytime from any device, even offline.
Learn more »
comments
print report bad tab
2 comments total.
0 reply
mracornbuddy 52 Nov 02, 2006 03:27 PM

i think the plucking intro part is good. i like and i think it works.. not sure about the rest.. can't wait until you get the rest of the song.. it's my fave

+1 reply
AMYxDISASTER 10 Feb 17, 2008 07:12 PM

e|-0-0-0-0-0-x-0-0-0-0-0-0-|
B|-0-0-0-0-0-x-0-0-0-0-0-0-|
G|-6-6-6-6-6-x-2-2-2-4-4-4-|
D|-6-6-6-6-6-x-2-2-2-4-4-4-|
A|-4-4-4-4-4-x-0-0-0-2-2-2-|
E|-0-0-0-0-0-x-0-0-0-0-0-0-|

I think this sounds better. I'm not 100% sure it's right, but it sound good to me.

guest
You may want to rate the tab now too:
select rating
Wanna post a correction for this tab? Suggest correction