Oops, an error
Loading. Please wait.

Running From Lions intro tab

version 3
version 3

Intro

Whole song

Interactive

7,893 views 1 this week
no commentswrite comment
1 2 3 4 5
3 more votes to show rating
add to favorites
×
Save as Personal and add changes to this tab that will be seen only by you. Learn more ›
×
You can save this tab as Personal to edit and correct it or add notes. All changes will be seen only by you. Learn more »
launch autoscroll
font size
0
reset
how to read this tab
guitar tuner
edit
Autoscroll
slow
fast
+/-
esc
set tempo
stop
Difficulty
this is the guy that did the rest of this song like last night

and i just figgured this out this morning and i'm stoked

so heres the 2nd guitar on the intro and the first/main guitar on the interlude part


Intro :

2nd guitar

e|------------------------------------------------|
B|--9-----9-----10---------7-------------9--------|
G|-----9-----9-----------9---9--------9-----9-----|
D|------------------------------------------------|
A|------------------------------------------------|
E|------------------------------------------------|


Interlude:


i'll just do the whole interlude again for you guys ...


First/main guitar -


e|------------------------------------------------------------------------|
B|--9--------9--------10-------10--------12-------12--------10-----10-----|
G|----9-9-9----9-9-9-----9-9-9----9-9-9-----9-9-9----9-9-9-----999----999-|
D|------------------------------------------------------------------------|
A|------------------------------------------------------------------------|
E|------------------------------------------------------------------------|


2nd Guitar -


e|--------------------------------------------------|
B|-12-----9-----10----------9-----------------------|
G|--------------------11----------9------11------8--|
D|--------------------------------------------------|
A|--------------------------------------------------|
E|--------------------------------------------------|


and at some point i guess the first/main guitar or another guitar comes in struming the 
...

but yea thats it ... it should be right ... i think my tab is the 2nd version ... but 
check it out and tell me if it sounds good or not

            
            
Suggest correction
Creating personal tab
Creating personal tab
You can edit any tab online and save it as your Personal.

You can edit, replace or remove any tab part or add personal notes – all changes will be seen only by you.

Personal tabs can be accessed anytime from any device, even offline.
Learn more »
Give kudos to tab author, rate the tab!
1 2 3 4 5
comments
print report bad tab
guest
Wanna post a correction for this tab? Suggest correction