Oops, an error
Loading. Please wait.

Running From Lions tab

version 4
version 4

Whole song

Interactive

2,090 views 1 this week
1 commentread comment
1 2 3 4 5
1 last vote to show rating
add to favorites
×
Save as Personal and add changes to this tab that will be seen only by you. Learn more ›
×
You can save this tab as Personal to edit and correct it or add notes. All changes will be seen only by you. Learn more »
launch autoscroll
font size
0
reset
how to read this tab
guitar tuner
edit
Autoscroll
slow
fast
+/-
esc
set tempo
stop
Author
Running From Lions - Put Up or Shut Up Version (6-8-13 Updated the chorus thanks 
to Hals Shinigami)


Intro 1: Only Intro 1 is Acoustic

Gtr. 1:  4X

e|--------------------------|
B|--------------------------|
G|--66666/--X-X--222--444---|
D|--66666/--X-X--222--444---|
A|--44444/--X-X--000--222---|
D|--------------------------|

Gtr. 2:  4X

e|--------------------------------------|
B|--9-----9-----10------7---------9-----|
G|-----9-----9--------9---9----9-----9--|
D|--------------------------------------|
A|--------------------------------------|
E|--------------------------------------|

Intro 2/Pre-verse: 

Gtr. 1:  2X

e|---------------------------------------------------------|
B|---------------------------------------------------------|
G|--6666666666666666---------------------------------------|
D|--6666666666666666--7777777777777777--9999999999999999---|
A|--4444444444444444--7777777777777777--9999999999999999---|
D|--------------------7777777777777777--9999999999999999---|

e|-------------------------|
B|-------------------------|
G|--77777777--66666666-----|
D|--XXXXXXXX--xxxxxxxx-----|
A|--99999999--88888888-----|
D|-------------------------|

Gtr. 2:

e|---------------------------------------|  4X
B|--9-9-----10-10------------------------|
G|------9-9-------9-9-9-9-9-9-11-11-9-9--|
D|---------------------------------------|
A|---------------------------------------|
E|---------------------------------------|


e|------------------|  4X
B|-12-9-10----9-----|
G|---------11---11--|
D|------------------|
A|------------------|
D|------------------|


Verse 1:

e|--------|
B|--------|
G|--6/----|
D|--6/----|
A|--4/----|
D|--------|

e|-------------------------------| 4X
B|-------------------------------|
G|--6-6-6-6-6-6-6-6-6-6-6-6-6-6--|
D|--6-6-6-6-6-6-6-6-6-6-6-6-6-6--|
A|--4-4-4-4-4-4-4-4-4-4-4-4-4-4--|
D|-------------------------------|
P.M.  . . . . . . . . . . . .

"And when things get too hot..."

e|----------------|
B|----------------|
G|--9~--------8~--|
D|--X---------X---|
A|--7~--------6~--|
D|----------------|

Chorus:

e|----------------------------------------------------------------------------| 2X
B|----------------------------------------------------------------------------|
G|--------------------6666666666666666----------------------------------------|
D|--2222222222222222--6666666666666666--6666666666666666--44444444--77777777--|
A|--2222222222222222--4444444444444444--6666666666666666--44444444--77777777--|
D|--2222222222222222--------------------6666666666666666--44444444--77777777--|

e|----------------------|
B|----------------------|
G|----------------------|
D|--44444444--77777777--|
A|--44444444--77777777--|
D|--44444444--77777777--|

Gtr. 2

e|-----------------------------------------------------------------------------------------|
B|-----------------------------------------------------------------------------------------|
G|--99999999999999999--13131313131313131313131313131313--11111111111111111111111111111111--|
D|--XXXXXXXXXXXXXXXXX--X-X-X-X-X-X-X-X-X-X-X-X-X-X-X-X---X-X-X-X-X-X-X-X-X-X-X-X-X-X-X-X---|
A|--77777777777777777--11111111111111111111111111111111--9-9-9-9-9-9-9-9-9-9-9-9-9-9-9-9---|
D|-----------------------------------------------------------------------------------------|

e|--------------------------------|
B|--------------------------------|
G|--99999999--16161616--14141414--|
D|--XXXXXXXX--X-X-X-X---X-X-X-X---|
A|--77777777--14141414--12121212--|
D|--------------------------------|

e|---------------------------------------------------------------------------------------------|
B|---------------------------------------------------------------------------------------------|
G|--13131313131313131313131313131313--1616161616161616--14141414--13131313--99999999999999999--|
D|--XXXXXXXXXXXXXXXXXXXXXXXXXXXXXXXX--X-X-X-X-X-X-X-X---X-X-X-X---X-X-X-X---XXXXXXXXXXXXXXXXX--|
A|--11111111111111111111111111111111--1414141414141414--12121212--11111111--77777777777777777--|
D|---------------------------------------------------------------------------------------------|

e|----------------------------------------| 2X
B|----------------------------------------|
G|--1313131313131313--16161616--14141414--|
D|--X-X-X-X-X-X-X-X---X-X-X-X---X-X-X-X---|
A|--1111111111111111--14141414--12121212--|
D|----------------------------------------|

Pre-verse:

Gtr. 1:

e|---------------------------------------------------------|
B|---------------------------------------------------------|
G|--6666666666666666---------------------------------------|
D|--6666666666666666--7777777777777777--9999999999999999---|
A|--4444444444444444--7777777777777777--9999999999999999---|
D|--------------------7777777777777777--9999999999999999---|

e|-------------------------|
B|-------------------------|
G|--77777777--66666666-----|
D|--XXXXXXXX--xxxxxxxx-----|
A|--99999999--88888888-----|
D|-------------------------|

Gtr. 2:

e|---------------------------------------|  4X
B|--9-9-----10-10------------------------|
G|------9-9-------9-9-9-9-9-9-11-11-9-9--|
D|---------------------------------------|
A|---------------------------------------|
E|---------------------------------------|

Verse 2:

e|--------|
B|--------|
G|--6/----|
D|--6/----|
A|--4/----|
D|--------|

e|-------------------------------| 
B|-------------------------------|
G|--6-6-6-6-6-6-6-6-6-6-6-6-6-6--|
D|--6-6-6-6-6-6-6-6-6-6-6-6-6-6--|
A|--4-4-4-4-4-4-4-4-4-4-4-4-4-4--|
D|-------------------------------|
P.M.  . . . . . . . . . . . .

e|--------------------------| 
B|--------------------------|
G|--6-6-6-6-6-6-6--666-666--|
D|--6-6-6-6-6-6-6--XXX-XXX--|
A|--4-4-4-4-4-4-4--444-444--|
D|--------------------------|
P.M.  . . . . . .  

e|--------------|
B|--------------|
G|--9~----------|
D|--X-----------|
A|--7~----------|
D|--------------|

Bridge: 

e|--------------------------------------------------------------------------| 
B|--------------------------------------------------------------------------|
G|--------------------6666666666666666--------------------------------------|
D|--2222222222222222--6666666666666666--6666666666666666--7777777777777777--|
A|--2222222222222222--4444444444444444--6666666666666666--7777777777777777--|
D|--2222222222222222--------------------6666666666666666--7777777777777777--|
    ................  ................  ................  ................

e|------------------------------------------------------------| 
B|------------------------------------------------------------|
G|--------------------6666666666666666------------------------|
D|--2222222222222222--6666666666666666--6666666666666666--7/--|
A|--2222222222222222--4444444444444444--6666666666666666--7/--|
D|--2222222222222222--------------------6666666666666666--7/--|
    ................  ................  ................

Chorus:

e|----------------------------------------------------------------------------| 2X
B|----------------------------------------------------------------------------|
G|--------------------6666666666666666----------------------------------------|
D|--2222222222222222--6666666666666666--6666666666666666--44444444--77777777--|
A|--2222222222222222--4444444444444444--6666666666666666--44444444--77777777--|
D|--2222222222222222--------------------6666666666666666--44444444--77777777--|

e|----------------------| 3X
B|----------------------|
G|----------------------|
D|--44444444--77777777--|
A|--44444444--77777777--|
D|--44444444--77777777--|

e|----------------|
B|----------------|
G|----------------|
D|--2~--9~--6~----|
A|--2~--9~--6~----|
D|--2~--9~--6~----|

Gtr. 2

e|-----------------------------------------------------------------------------------------|
B|-----------------------------------------------------------------------------------------|
G|--99999999999999999--13131313131313131313131313131313--11111111111111111111111111111111--|
D|--XXXXXXXXXXXXXXXXX--X-X-X-X-X-X-X-X-X-X-X-X-X-X-X-X---X-X-X-X-X-X-X-X-X-X-X-X-X-X-X-X---|
A|--77777777777777777--11111111111111111111111111111111--9-9-9-9-9-9-9-9-9-9-9-9-9-9-9-9---|
D|-----------------------------------------------------------------------------------------|

e|--------------------------------|
B|--------------------------------|
G|--99999999--16161616--14141414--|
D|--XXXXXXXX--X-X-X-X---X-X-X-X---|
A|--77777777--14141414--12121212--|
D|--------------------------------|

e|---------------------------------------------------------------------------------------------|
B|---------------------------------------------------------------------------------------------|
G|--13131313131313131313131313131313--1616161616161616--14141414--13131313--99999999999999999--|
D|--XXXXXXXXXXXXXXXXXXXXXXXXXXXXXXXX--X-X-X-X-X-X-X-X---X-X-X-X---X-X-X-X---XXXXXXXXXXXXXXXXX--|
A|--11111111111111111111111111111111--1414141414141414--12121212--11111111--77777777777777777--|
D|---------------------------------------------------------------------------------------------|

e|----------------------------------------| 3X
B|----------------------------------------|
G|--1313131313131313--16161616--14141414--|
D|--X-X-X-X-X-X-X-X---X-X-X-X---X-X-X-X---|
A|--1111111111111111--14141414--12121212--|
D|----------------------------------------|

e|----------------|
B|----------------|
G|--9~--16~--13~--|
D|--X---X----X----|
A|--7~--14~--11~--|
D|----------------|


Get me out of this place before I 'cause more damage
A small price to pay for building houses out of matchsticks
And when things get too hot, you've got me to blame
For every fire that breaks out in every lover's name

So don't forget, we've got unfinished business
Stories yet to unfold, tales that must be retold
And I regret not knowing when to put an end to all this madness
Keeps me wanting, keeps me wanting more

Sell me out, I'm yesterday's old news
Phrases left on paper, black ink bleeding through
The pages where we made our history
Call me foolish, I feel helpless

Running from lions
(Like a deer caught in the headlights)
Never felt like such a mistake
Running from lions
(I won't know what hit me)
Never felt like such a mistake

Running from lions
(Like a deer caught in the headlights)
Never felt like such a mistake
Running from lions
(I won't know what hit me)
Never felt like such a

Don't forget, we've got unfinished business
Stories yet to unfold, tales that must be retold
And I regret not knowing when to put an end to all this madness
Keeps me wanting, keeps me wanting
Keeps me wanting, keeps me wanting more
Suggest correction
Creating personal tab
Creating personal tab
You can edit any tab online and save it as your Personal.

You can edit, replace or remove any tab part or add personal notes – all changes will be seen only by you.

Personal tabs can be accessed anytime from any device, even offline.
Learn more »
Give kudos to tab author, rate the tab!
1 2 3 4 5
comments
print report bad tab
1 comment total.
0 reply
Hals Shinigami 113 Jun 06, 2013 07:18 AM

Personally, I think there is some Guitar 2 missing from the chorus, otherwise, it's excellent!

guest
You may want to rate the tab now too:
select rating
Wanna post a correction for this tab? Suggest correction