Oops, an error
Loading. Please wait.

Running From Lions tab

version 5
version 5

Whole song

Interactive

115 views 1 this week
no commentswrite comment
1 2 3 4 5
3 more votes to show rating
add to favorites
×
Save as Personal and add changes to this tab that will be seen only by you. Learn more ›
×
You can save this tab as Personal to edit and correct it or add notes. All changes will be seen only by you. Learn more »
launch autoscroll
font size
0
reset
how to read this tab
guitar tuner
edit
Autoscroll
slow
fast
+/-
esc
set tempo
stop
Author
Difficulty
-------------------------------------------------------------------------------
                             RUNNING FROM LIONS - All Time Low
-------------------------------------------------------------------------------
Tabbed by: wreckcge
No capo
Tuning: Standard (EADGBe)

Honestly so fun play, and one of my favorite songs. Simpler than it looks.
Most chords are barre chords, but they're played open. So you would have
your barre chord, but only have your first finger on the bottom string of
the chord instead of barring. Most of the G#s, F#ms, and As are barred though.
Only part I'm iffy about is the outro, but you don't really HAVE to play that.

Enjoy!
~~~~~~~~~~~~~~~~~~~~~~~~~~~~~~~~~~~~~~~~~~~~~~~~~~~~~~~~~~~~~~~~~~~~~~~~~~~~~~~~~

Intro:
   C#m7        Asus      Bsus
e|-0-0-0-0-0---0-0-0-0---0-0-0-0----|
B|-0-0-0-0-0---0-0-0-0---0-0-0-0----|
G|-6-6-6-6-6---2-2-2-2---4-4-4-4----| x3
D|-6-6-6-6-6---2-2-2-2---4-4-4-4----|
A|-4-4-4-4-4---0-0-0-0---2-2-2-2----|
E|----------------------------------|

[ you can mute and drag the last chord
all the way down the fret board for
the weird part after the chords. ]

melody:
e|-------------|
B|-9-10---7----|
G|------9------| x4
D|-------------|
A|-------------|
E|-------------|

e|-7-------------|
B|---9-10-7-9----|
G|---------------| x4
D|---------------|
A|---------------|
E|---------------|

verse 1:
                   C#m      G#   C#m      G#    A        F#   A         B B
e|----------------------------------------------------------------------0-------------|
B|-R---R---R---R--------------------------------------------------------0-------------|
G|-E---E---E---E--------------------------------------------------------0-------------|
D|-S---S---S---S---6-6-6-6-------6-6-6-6--------------------------------4--4-4-4-4----|
A|-T---T---T---T---4-4-4-4--6-6--4-4-4-4--6-6---7-7-7-7--4-4--7-7-7-7---2--2-2-2-2----|
E|--------------------------4-4-----------4-4---5-5-5-5--2-2--5-5-5-5-----------------|

chorus:
   E         C#m       G#        F#m   A              F#m   A          E
e|-0-0-0-0---0-0-0-0---4-4-4-4---2-2---5-5--|---------2-2---5-5----|
B|-0-0-0-0---0-0-0-0---4-4-4-4---2-2---5-5--|--[x2}---2-2---5-5----|
G|-9-9-9-9---6-6-6-6---5-5-5-5---3-3---6-6--|---------3-3---6=6----|
D|-9-9-9-9---6-6-6-6---6-6-6-6---4-4---7-7--|---------4-4---7-7----|
A|-7-7-7-7---4-4-4-4---6-6-6-6---4-4---7-7--|---------4-4---7-7----|
E|---------------------4-4-4-4---2-2---5-5--|---------2-2---5-5----|

melody:
e|-------------|
B|-9-10---7----|
G|------9------| x4
D|-------------|
A|-------------|
E|-------------|

verse 2:
                   C#m      G#   C#m       F#           E
e|------------------------------------------------------0----|
B|-R---R---R---R----------------------------------------0----|
G|-E---E---E---E----------------------------------------9----|
D|-S---S---S---S---6-6-6-6-------6-6-6-6---11-11-11-11--9----|
A|-T---T---T---T---4-4-4-4--6-6--4-4-4-4---9--9--9--9---7----|
E|--------------------------4-4------------------------------|

bridge:
   E         C#m       G#        A
e|-0-0-0-0---0-0-0-0---4-4-4-4---5-5-5-5----|
B|-0-0-0-0---0-0-0-0---4-4-4-4---5-5-5-5----|
G|-9-9-9-9---6-6-6-6---5-5-5-5---6-6-6-6----| x2
D|-9-9-9-9---6-6-6-6---6-6-6-6---7-7-7-7----|
A|-7-7-7-7---4-4-4-4---6-6-6-6---7-7-7-7----|
E|---------------------4-4-4-4---5-5-5-5----|
[ hit A once at the end ]

chorus:
   E         C#m       G#        F#m   A              F#m   A          E
e|-0-0-0-0---0-0-0-0---4-4-4-4---2-2---5-5--|---------2-2---5-5--------0----|
B|-0-0-0-0---0-0-0-0---4-4-4-4---2-2---5-5--|--[x2}---2-2---5-5--[x4]--0----|
G|-9-9-9-9---6-6-6-6---5-5-5-5---3-3---6-6--|---------3-3---6=6--------9----|
D|-9-9-9-9---6-6-6-6---6-6-6-6---4-4---7-7--|---------4-4---7-7--------9----|
A|-7-7-7-7---4-4-4-4---6-6-6-6---4-4---7-7--|---------4-4---7-7--------7----|
E|---------------------4-4-4-4---2-2---5-5--|---------2-2---5-5-------------|

outro:
e|-9---9---9---|
B|---9---9---9-|
G|-------------| x2
D|-------------|
A|-------------|
E|-------------|

            
            
Suggest correction
Creating personal tab
Creating personal tab
You can edit any tab online and save it as your Personal.

You can edit, replace or remove any tab part or add personal notes – all changes will be seen only by you.

Personal tabs can be accessed anytime from any device, even offline.
Learn more »
Give kudos to tab author, rate the tab!
1 2 3 4 5
comments
print report bad tab
guest
You may want to rate the tab now too:
select rating
Wanna post a correction for this tab? Suggest correction