Oops, an error
Loading. Please wait.

Shameless tab

version 2
version 2

Whole song

Interactive

22,603 views 6 this week
4 commentsread comments
1 2 3 4 5
x 10
add to favorites
×
Save as Personal and add changes to this tab that will be seen only by you. Learn more ›
×
You can save this tab as Personal to edit and correct it or add notes. All changes will be seen only by you. Learn more »
launch autoscroll
font size
0
reset
how to read this tab
guitar tuner
edit
Autoscroll
slow
fast
+/-
esc
set tempo
stop
Author
Difficulty
#----------------------------------PLEASE NOTE---------------------------------#
#This file is the author's own work and represents their interpretation of the #
#song. You may only use this file for private study, scholarship, or research. #
#------------------------------------------------------------------------------#








 

 

Gtr I (D A D G B E) 
Gtr II (D A D G B E) 


 Intro
  Q=190
 4/4
  Gtr I
  Q  E E E E Q     E  E E E E E E E    E  E E E E E Q     E  E E E E E E E
|---------------|-------------------|------------------|--------------------|
|---------------|-------------------|------------------|--------------------|
|----7-7-7-7----|--7--7-7-7-----7-7-|-------7-7-7-7----|--7--7-7-7-----7-7--|
|---------------|-----------5-5-----|------------------|-----------5-5------|
|-5----------7--|-------------------|--5--5---------7--|--------------------|
|---------------|-------------------|------------------|--------------------|
|
| Gtr II
| W               +W                  +W                 +W
|---------------|-------------------|------------------|--------------------|
|---------------|-------------------|------------------|--------------------|
|---------------|-------------------|------------------|--------------------|
|-0-------------|-(0)---------------|-(0)--------------|-(0)----------------|
|-0-------------|-(0)---------------|-(0)--------------|-(0)----------------|
|-0-------------|-(0)---------------|-(0)--------------|-(0)----------------|


  E E E E E E Q    E E E E E E E E   E E E E E E Q    E E E E  E  E E E
|----------------|-----------------|----------------|-------------------|
|----------------|-----------------|----------------|-------------------|
|-----7-7-7-7----|-7-7-7-7-----7-7-|-----7-7-7-7----|-7-7-7-7-------7-7-|
|----------------|---------5-5-----|----------------|----------5--5-----|
|-5-5---------7--|-----------------|-5-5---------7--|-------------------|
|----------------|-----------------|----------------|-------------------|
|
| E E Q   H        W                 W                H        H
|----------------|-----------------|----------------|-------------------|
|----------------|-----------------|----------------|-------------------|
|----------------|-----------------|----------------|-------------------|
|-0--------------|-----------------|----------------|-------------------|
|-0--------------|-----------------|----------------|---------12\-------|
|-0--------------|-----------------|----------------|---------12\-------|


 Verse
  Q  E E H      W          Q  +E  E H      W
|-------------|----------|---------------|------|
|-------------|----------|---------------|------|
|-------------|----------|---------------|------|
|-0--0-0------|----------|-0--(0)-0------|------|
|-0--0-0------|----------|-0--(0)-0------|------|
|-0--0-0------|----------|-0--(0)-0------|------|


  Q  E E H      H    E E E E   Q  Q  Q  Q     Q   Q  E E E
|-------------|--------------|-------------|----------------|
|-------------|--------------|-------------|----------------|
|-------------|--------------|-------------|----------------|
|-5--5-5------|--------5-5-5-|-9--9--9--9--|--7---7--7-7-7--|
|-5--5-5------|--------5-5-5-|-9--9--9--9--|--7---7--7-7-7--|
|-5--5-5------|--------5-5-5-|-9--9--9--9--|--7---7--7-7-7--|
|
| W             W              Q  Q  Q  Q     Q   Q  Q   E
|-------------|--------------|-------------|----------------|
|-------------|--------------|-------------|----------------|
|-------------|--------------|-7--7--9--9--|-11--11--9---9--|
|-------------|--------------|-x--x--x--x--|--x---x--x---x--|
|-------------|--------------|-5--5--7--7--|--9---9--7---7--|
|-------------|--------------|-------------|----------------|


   Q     E  E  H             W
|-------------------------|-------------------------|
|-------------------------|-------------------------|
|-------------------------|-------------------------|
|--0-----0--0-------------|-------------------------|
|--0-----0--0-------------|-------------------------|
|--0-----0--0-------------|-------------------------|
|
|  E  E  E  E  E  E  E  E    E  E  E  E  E  E  E  E
|-------------------------|-------------------------|
|-10-10-10-10-10-10-10-10-|-10-10-10-10-10-10-10-10-|
|--7--7--7--7--7--7--7--7-|--7--7--7--7--7--7--7--7-|
|--x--x--x--x--x--x--x--x-|--x--x--x--x--x--x--x--x-|
|--5--5--5--5--5--5--5--5-|--5--5--5--5--5--5--5--5-|
|-------------------------|-------------------------|


   Q    +E   E  H             W
|--------------------------|-------------------------|
|--------------------------|-------------------------|
|--------------------------|-------------------------|
|--0----(0)--0-------------|-------------------------|
|--0----(0)--0-------------|-------------------------|
|--0----(0)--0-------------|-------------------------|
|
|  E  E  E   E  E  E  E  E    E  E  E  E  E  E  E  E
|--------------------------|-------------------------|
|-10-10-10--10-10-10-10-10-|-10-10-10-10-10-10-10-10-|
|--7--7--7---7--7--7--7--7-|--7--7--7--7--7--7--7--7-|
|--x--x--x---x--x--x--x--x-|--x--x--x--x--x--x--x--x-|
|--5--5--5---5--5--5--5--5-|--5--5--5--5--5--5--5--5-|
|--------------------------|-------------------------|


   Q     E  E  H             H           E  E  E  E
|-------------------------|-------------------------|
|-------------------------|-------------------------|
|-------------------------|-------------------------|
|--5-----5--5-------------|-----------------5--5--5-|
|--5-----5--5-------------|-----------------5--5--5-|
|--5-----5--5-------------|-----------------5--5--5-|
|
|  E  E  E  E  E  E  E  E    E  E  E  E  E  E  E  E
|-------------------------|-------------------------|
|-10-10-10-10-10-10-10-10-|-10-10-10-10-10-10-10-10-|
|--7--7--7--7--7--7--7--7-|--7--7--7--7--7--7--7--7-|
|--x--x--x--x--x--x--x--x-|--x--x--x--x--x--x--x--x-|
|--5--5--5--5--5--5--5--5-|--5--5--5--5--5--5--5--5-|
|-------------------------|-------------------------|


   Q     Q     Q     Q      E E E E E E E E
|-------------------------|-----------------|
|-------------------------|-----------------|
|-------------------------|-----------------|
|--9-----9-----9-----9----|-7-7-7-7-7-------|
|--9-----9-----9-----9----|-7-7-7-7-7-------|
|--9-----9-----9-----9----|-7-7-7-7-7-------|
|
|  E  E  E  E  E  E  E  E   E E E E E E E E
|-------------------------|-----------------|
|-------------------------|-----------------|
|-11-11-11-11-11-11-11-11-|-9-9-9-9-9-------|
|--x--x--x--x--x--x--x--x-|-x-x-x-x-x-------|
|--9--9--9--9--9--9--9--9-|-7-7-7-7-7-------|
|-------------------------|-----------------|


 Pre-Chorus
  E E E E E E E E   E E E E  E  E  E  E   E E E E E E E E   E E E E E E E E
|-----------------|---------------------|-----------------|-----------------|
|-----------------|---------------------|-----------------|-----------------|
|-7-7-7-7-7-7-7-7-|-9-9-9-9-11-11-11-11-|-7-7-7-7-7-7-7-7-|-7-7-7-7-7-7-7-7-|
|-x-x-x-x-x-x-x-x-|-x-x-x-x--x--x--x--x-|-x-x-x-x-x-x-x-x-|-x-x-x-x-x-x-x-x-|
|-5-5-5-5-5-5-5-5-|-7-7-7-7--9--9--9--9-|-5-5-5-5-5-5-5-5-|-5-5-5-5-5-5-5-5-|
|-----------------|---------------------|-----------------|-----------------|
|
| E E E E E E E E   E E E E  E  E  E  E   E E E E E E E E   E E E E E E E E
|-----------------|---------------------|-----------------|-----------------|
|-----------------|---------------------|-----------------|-----------------|
|-----------------|---------------------|-----------------|-----------------|
|-9-9-9-9-9-9-9-9-|-9-9-9-9--9--9--9--9-|-0-0-0-0-0-0-0-0-|-0-0-0-0-0-0-0-0-|
|-9-9-9-9-9-9-9-9-|-9-9-9-9--9--9--9--9-|-0-0-0-0-0-0-0-0-|-0-0-0-0-0-0-0-0-|
|-9-9-9-9-9-9-9-9-|-9-9-9-9--9--9--9--9-|-0-0-0-0-0-0-0-0-|-0-0-0-0-0-0-0-0-|


   E  E  E  E  E  E  E  E    E  E  E  E  E  E  E  E
|-------------------------|-------------------------|
|-------------------------|-------------------------|
|-14-14-14-14-14-14-14-14-|-12-12-12-12-11-11-11-11-|
|--x--x--x--x--x--x--x--x-|--x--x--x--x--x--x--x--x-|
|-12-12-12-12-12-12-12-12-|-10-10-10-10--9--9--9--9-|
|-------------------------|-------------------------|
|
|  E  E  E  E  E  E  E  E    E  E  E  E  E  E  E  E
|-------------------------|-------------------------|
|-------------------------|-------------------------|
|-------------------------|-------------------------|
|--7--7--7--7--7--7--7--7-|--7--7--7--7--7--7--7--7-|
|--7--7--7--7--7--7--7--7-|--7--7--7--7--7--7--7--7-|
|--7--7--7--7--7--7--7--7-|--7--7--7--7--7--7--7--7-|


  E E E E  E  E  E  E   E E E E E E E E
|---------------------|-----------------|
|---------------------|-----------------|
|-9-9-9-9-11-11-11-11-|-7-7-7-7-7-7-7-7-|
|-x-x-x-x--x--x--x--x-|-x-x-x-x-x-x-x-x-|
|-7-7-7-7--9--9--9--9-|-5-5-5-5-5-5-5-5-|
|---------------------|-----------------|
|
| E E E E  E  E  E  E   E E E E E E E E
|---------------------|-----------------|
|---------------------|-----------------|
|---------------------|-----------------|
|-5-5-5-5--5--5--5--5-|-5-5-5-5-5-5-5-5-|
|-5-5-5-5--5--5--5--5-|-5-5-5-5-5-5-5-5-|
|-5-5-5-5--5--5--5--5-|-5-5-5-5-5-5-5-5-|


  E E E E E E E E   E E E E  E  E  E  E   E E E E E E E E   E E E E E E E E
|-----------------|---------------------|-----------------|-----------------|
|-----------------|---------------------|-----------------|-----------------|
|-7-7-7-7-7-7-7-7-|-9-9-9-9-11-11-11-11-|-7-7-7-7-7-7-7-7-|-7-7-7-7-7-7-7-7-|
|-x-x-x-x-x-x-x-x-|-x-x-x-x--x--x--x--x-|-x-x-x-x-x-x-x-x-|-x-x-x-x-x-x-x-x-|
|-5-5-5-5-5-5-5-5-|-7-7-7-7--9--9--9--9-|-5-5-5-5-5-5-5-5-|-5-5-5-5-5-5-5-5-|
|-----------------|---------------------|-----------------|-----------------|
|
| E E E E E E E E   E E E E  E  E  E  E   E E E E E E E E   E E E E E E E E
|-----------------|---------------------|-----------------|-----------------|
|-----------------|---------------------|-----------------|-----------------|
|-----------------|---------------------|-----------------|-----------------|
|-9-9-9-9-9-9-9-9-|-9-9-9-9--9--9--9--9-|-0-0-0-0-0-0-0-0-|-0-0-0-0-0-0-0-0-|
|-9-9-9-9-9-9-9-9-|-9-9-9-9--9--9--9--9-|-0-0-0-0-0-0-0-0-|-0-0-0-0-0-0-0-0-|
|-9-9-9-9-9-9-9-9-|-9-9-9-9--9--9--9--9-|-0-0-0-0-0-0-0-0-|-0-0-0-0-0-0-0-0-|


   E  E  E  E  E  E  E  E    E  E  E  E  E  E  E  E    W           +W
|-------------------------|-------------------------|-----------|---------|
|-------------------------|-------------------------|-----------|---------|
|-14-14-14-14-14-14-14-14-|-12-12-12-12-11-11-11-11-|-14--------|-(14)----|
|--x--x--x--x--x--x--x--x-|--x--x--x--x--x--x--x--x-|--x--------|--(x)----|
|-12-12-12-12-12-12-12-12-|-10-10-10-10--9--9--9--9-|-12--------|-(12)----|
|-------------------------|-------------------------|-----------|---------|
|
|  E  E  E  E  E  E  E  E    E  E  E  E  E  E  E  E    W           +W
|-------------------------|-------------------------|-----------|---------|
|-------------------------|-------------------------|-----------|---------|
|-------------------------|-------------------------|-----------|---------|
|--7--7--7--7--7--7--7--7-|--7--7--7--7--7--7--7--7-|--5--------|--(5)----|
|--7--7--7--7--7--7--7--7-|--7--7--7--7--7--7--7--7-|--5--------|--(5)----|
|--7--7--7--7--7--7--7--7-|--7--7--7--7--7--7--7--7-|--5--------|--(5)----|


 Chorus
  W          +W           +W           +W
|----------|------------|------------|--------|
|----------|------------|------------|--------|
|-7--------|-(7)--------|-(7)--------|-(7)----|
|-x--------|-(x)--------|-(x)--------|-(x)----|
|-5--------|-(5)--------|-(5)--------|-(5)----|
|----------|------------|------------|--------|
|
| W          +W           +W           +W
|----------|------------|------------|--------|
|----------|------------|------------|--------|
|----------|------------|------------|--------|
|-0--------|-(0)--------|-(0)--------|-(0)----|
|-0--------|-(0)--------|-(0)--------|-(0)----|
|-0--------|-(0)--------|-(0)--------|-(0)----|


  W           W            W            W
|----------|------------|------------|--------|
|----------|------------|------------|--------|
|----------|------------|------------|--------|
|----------|------------|------------|--------|
|----------|------------|------------|--------|
|----------|------------|------------|--------|
|
| W          +W           +W           +W
|----------|------------|------------|--------|
|----------|------------|------------|--------|
|----------|------------|------------|--------|
|-5--------|-(5)--------|-(5)--------|-(5)----|
|-5--------|-(5)--------|-(5)--------|-(5)----|
|-5--------|-(5)--------|-(5)--------|-(5)----|


 Verse
            PM----------------|   PM            PM--------------------|
  Q  +E  Q  E E E   E E E E E E E E   Q  +E  Q  E E E   E E E E E E E E
|-----------------|-----------------|-----------------|-----------------|
|-----------------|-----------------|-----------------|-----------------|
|-----------------|-----------------|-----------------|-----------------|
|-0--(0)-0--------|-------------0---|-0--(0)-0--------|-----------------|
|-0--(0)-0--------|-------------0---|-0--(0)-0--------|-----------------|
|-0--(0)-0--0-0-0-|-0-0-0-0-0-0-0-0-|-0--(0)-0--0-0-0-|-0-0-0-0-0-0-0-0-|


           PM----------------|
  Q  +E  E E E E E   E E E E E E E E   Q  Q  Q  Q    Q  Q  E E E
|------------------|-----------------|-------------|--------------|
|------------------|-----------------|-------------|--------------|
|------------------|-----------------|-------------|--------------|
|-5--(5)-5---------|-----------5-5-5-|-9--9--9--9--|-7--7--7-7-7--|
|-5--(5)-5---------|-----------5-5-5-|-9--9--9--9--|-7--7--7-7-7--|
|-5--(5)-5-5-5-5-5-|-5-5-5-5-5-5-5-5-|-9--9--9--9--|-7--7--7-7-7--|


                   PM-----------------------|      PM
   Q    +E   Q     E  E  E    E  E  E  E  E  E  E  E
|--------------------------|-------------------------|
|--------------------------|-------------------------|
|--------------------------|-------------------------|
|--0----(0)--0-------------|--------------------0----|
|--0----(0)--0-------------|--------------------0----|
|--0----(0)--0-----0--0--0-|--0--0--0--0--0--0--0--0-|
|
|  E  E  E   E  E  E  E  E    E  E  E  E  E  E  E  E
|--------------------------|-------------------------|
|-10-10-10--10-10-10-10-10-|-10-10-10-10-10-10-10-10-|
|--7--7--7---7--7--7--7--7-|--7--7--7--7--7--7--7--7-|
|--x--x--x---x--x--x--x--x-|--x--x--x--x--x--x--x--x-|
|--5--5--5---5--5--5--5--5-|--5--5--5--5--5--5--5--5-|
|--------------------------|-------------------------|


                   PM-----------------------------|
   Q    +E   Q     E  E  E    E  E  E  E  E  E  E  E
|--------------------------|-------------------------|
|--------------------------|-------------------------|
|--------------------------|-------------------------|
|--0----(0)--0-------------|-------------------------|
|--0----(0)--0-------------|-------------------------|
|--0----(0)--0-----0--0--0-|--0--0--0--0--0--0--0--0-|
|
|  E  E  E   E  E  E  E  E    E  E  E  E  E  E  E  E
|--------------------------|-------------------------|
|-10-10-10--10-10-10-10-10-|-10-10-10-10-10-10-10-10-|
|--7--7--7---7--7--7--7--7-|--7--7--7--7--7--7--7--7-|
|--x--x--x---x--x--x--x--x-|--x--x--x--x--x--x--x--x-|
|--5--5--5---5--5--5--5--5-|--5--5--5--5--5--5--5--5-|
|--------------------------|-------------------------|


                PM-----------------------|
   Q    +E   E  E  E  E  E    E  E  E  E  E  E  E  E
|--------------------------|-------------------------|
|--------------------------|-------------------------|
|--------------------------|-------------------------|
|--5----(5)--5-------------|-----------------5--5--5-|
|--5----(5)--5-------------|-----------------5--5--5-|
|--5----(5)--5--5--5--5--5-|--5--5--5--5--5--5--5--5-|
|
|  E  E  E   E  E  E  E  E    E  E  E  E  E  E  E  E
|--------------------------|-------------------------|
|-10-10-10--10-10-10-10-10-|-10-10-10-10-10-10-10-10-|
|--7--7--7---7--7--7--7--7-|--7--7--7--7--7--7--7--7-|
|--x--x--x---x--x--x--x--x-|--x--x--x--x--x--x--x--x-|
|--5--5--5---5--5--5--5--5-|--5--5--5--5--5--5--5--5-|
|--------------------------|-------------------------|


   Q     Q     Q     Q      E E E E E E E E
|-------------------------|-----------------|
|-------------------------|-----------------|
|-------------------------|-----------------|
|--9-----9-----9-----9----|-7-7-7-7-7-7-7-7-|
|--9-----9-----9-----9----|-7-7-7-7-7-7-7-7-|
|--9-----9-----9-----9----|-7-7-7-7-7-7-7-7-|
|
|  E  E  E  E  E  E  E  E   E E E E E E E E
|-------------------------|-----------------|
|-------------------------|-----------------|
|-11-11-11-11-11-11-11-11-|-9-9-9-9-9-9-9-9-|
|--x--x--x--x--x--x--x--x-|-x-x-x-x-x-x-x-x-|
|--9--9--9--9--9--9--9--9-|-7-7-7-7-7-7-7-7-|
|-------------------------|-----------------|


 Pre-Chorus
  W          +W           E E E E E E E E   E E E E E E E E
|----------|------------|-----------------|-----------------|
|----------|------------|-----------------|-----------------|
|-7--------|-(7)--------|-7-7-7-7-7-7-7-7-|-7-7-7-7-7-7-7-7-|
|-x--------|-(x)--------|-x-x-x-x-x-x-x-x-|-x-x-x-x-x-x-x-x-|
|-5--------|-(5)--------|-5-5-5-5-5-5-5-5-|-5-5-5-5-5-5-5-5-|
|----------|------------|-----------------|-----------------|
|
| W          +W           E E E E E E E E   E E E E E E E E
|----------|------------|-----------------|-----------------|
|----------|------------|-----------------|-----------------|
|----------|------------|-----------------|-----------------|
|-9--------|-(9)--------|-0-0-0-0-0-0-0-0-|-0-0-0-0-0-0-0-0-|
|-9--------|-(9)--------|-0-0-0-0-0-0-0-0-|-0-0-0-0-0-0-0-0-|
|-9--------|-(9)--------|-0-0-0-0-0-0-0-0-|-0-0-0-0-0-0-0-0-|


   E  E  E  E  E  E  E  E    E  E  E  E  E  E  E  E
|-------------------------|-------------------------|
|-------------------------|-------------------------|
|-14-14-14-14-14-14-14-14-|-12-12-12-12-11-11-11-11-|
|--x--x--x--x--x--x--x--x-|--x--x--x--x--x--x--x--x-|
|-12-12-12-12-12-12-12-12-|-10-10-10-10--9--9--9--9-|
|-------------------------|-------------------------|
|
|  E  E  E  E  E  E  E  E    E  E  E  E  E  E  E  E
|-------------------------|-------------------------|
|-------------------------|-------------------------|
|-------------------------|-------------------------|
|--7--7--7--7--7--7--7--7-|--7--7--7--7--7--7--7--7-|
|--7--7--7--7--7--7--7--7-|--7--7--7--7--7--7--7--7-|
|--7--7--7--7--7--7--7--7-|--7--7--7--7--7--7--7--7-|


  E E E E  E  E  E  E   E E E E E E E E
|---------------------|-----------------|
|---------------------|-----------------|
|-9-9-9-9-11-11-11-11-|-7-7-7-7-7-7-7-7-|
|-x-x-x-x--x--x--x--x-|-x-x-x-x-x-x-x-x-|
|-7-7-7-7--9--9--9--9-|-5-5-5-5-5-5-5-5-|
|---------------------|-----------------|
|
| E E E E  E  E  E  E   E E E E E E E E
|---------------------|-----------------|
|---------------------|-----------------|
|---------------------|-----------------|
|-5-5-5-5--5--5--5--5-|-5-5-5-5-5-5-5-5-|
|-5-5-5-5--5--5--5--5-|-5-5-5-5-5-5-5-5-|
|-5-5-5-5--5--5--5--5-|-5-5-5-5-5-5-5-5-|


  E E E E E E E E   E E E E  E  E  E  E   E E E E E E E E   E E E E E E E E
|-----------------|---------------------|-----------------|-----------------|
|-----------------|---------------------|-----------------|-----------------|
|-7-7-7-7-7-7-7-7-|-9-9-9-9-11-11-11-11-|-7-7-7-7-7-7-7-7-|-7-7-7-7-7-7-7-7-|
|-x-x-x-x-x-x-x-x-|-x-x-x-x--x--x--x--x-|-x-x-x-x-x-x-x-x-|-x-x-x-x-x-x-x-x-|
|-5-5-5-5-5-5-5-5-|-7-7-7-7--9--9--9--9-|-5-5-5-5-5-5-5-5-|-5-5-5-5-5-5-5-5-|
|-----------------|---------------------|-----------------|-----------------|
|
| E E E E E E E E   E E E E  E  E  E  E   E E E E E E E E   E E E E E E E E
|-----------------|---------------------|-----------------|-----------------|
|-----------------|---------------------|-----------------|-----------------|
|-----------------|---------------------|-----------------|-----------------|
|-9-9-9-9-9-9-9-9-|-9-9-9-9--9--9--9--9-|-0-0-0-0-0-0-0-0-|-0-0-0-0-0-0-0-0-|
|-9-9-9-9-9-9-9-9-|-9-9-9-9--9--9--9--9-|-0-0-0-0-0-0-0-0-|-0-0-0-0-0-0-0-0-|
|-9-9-9-9-9-9-9-9-|-9-9-9-9--9--9--9--9-|-0-0-0-0-0-0-0-0-|-0-0-0-0-0-0-0-0-|


   E  E  E  E  E  E  E  E    E  E  E  E  E  E  E  E    W           +H     H
|-------------------------|-------------------------|-----------|--------------|
|-------------------------|-------------------------|-----------|--------------|
|-14-14-14-14-14-14-14-14-|-12-12-12-12-11-11-11-11-|-14--------|-(14)---------|
|--x--x--x--x--x--x--x--x-|--x--x--x--x--x--x--x--x-|--x--------|--(x)---------|
|-12-12-12-12-12-12-12-12-|-10-10-10-10--9--9--9--9-|-12--------|-(12)---------|
|-------------------------|-------------------------|-----------|--------------|
|
|  E  E  E  E  E  E  E  E    E  E  E  E  E  E  E  E    W           +H     H
|-------------------------|-------------------------|-----------|--------------|
|-------------------------|-------------------------|-----------|--------------|
|-------------------------|-------------------------|-----------|--------------|
|--7--7--7--7--7--7--7--7-|--7--7--7--7--7--7--7--7-|--5--------|--(5)---------|
|--7--7--7--7--7--7--7--7-|--7--7--7--7--7--7--7--7-|--5--------|--(5)---------|
|--7--7--7--7--7--7--7--7-|--7--7--7--7--7--7--7--7-|--5--------|--(5)---------|


 Chorus
   Q   Q   Q   Q     Q   Q   Q   Q     Q   Q   Q   Q     Q   Q   Q   Q
|-----------------|-----------------|-----------------|-----------------|
|-----------------|-----------------|-----------------|-----------------|
|-----------------|-----------------|-----------------|-----------------|
|--0---0---0---0--|--0---0---7---7--|--0---0---0---0--|--0---0---7---8--|
|--0---0---0---0--|--0---0---7---7--|--0---0---0---0--|--0---0---7---8--|
|--0---0---0---0--|--0---0---7---7--|--0---0---0---0--|--0---0---7---8--|
|
|  Q   Q   Q   Q     Q   Q   Q   Q     Q   Q   Q   Q     Q   Q   Q   Q
|-----------------|-----------------|-----------------|-----------------|
|-----------------|-----------------|-----------------|-----------------|
|-11--11--11--11--|-11--11--12--12--|-11--11--11--11--|-11--11--12--12--|
|--x---x---x---x--|--x---x---x---x--|--x---x---x---x--|--x---x---x---x--|
|--9---9---9---9--|--9---9--10--10--|--9---9---9---9--|--9---9--10--10--|
|-----------------|-----------------|-----------------|-----------------|


   Q   Q   Q   Q     Q   Q   Q   Q
|-----------------|-----------------|
|-----------------|-----------------|
|-----------------|-----------------|
|--9---9---9---9--|--9---9---9---9--|
|--9---9---9---9--|--9---9---9---9--|
|--9---9---9---9--|--9---9---9---9--|
|
|  Q   Q   Q   Q     Q   Q   Q   Q
|-----------------|-----------------|
|-----------------|-----------------|
|-11--11--11--11--|-11--11--12--12--|
|--x---x---x---x--|--x---x---x---x--|
|--9---9---9---9--|--9---9--10--10--|
|-----------------|-----------------|


   E  E  E  E  E  E  E  E    E  E  E  E  E  E  E  E
|-------------------------|-------------------------|
|-------------------------|-------------------------|
|-------------------------|-------------------------|
|--5--5--5--5--5--5--5--5-|--5--5--5--5--5--5--5--5-|
|--5--5--5--5--5--5--5--5-|--5--5--5--5--5--5--5--5-|
|--5--5--5--5--5--5--5--5-|--5--5--5--5--5--5--5--5-|
|
|  E  E  E  E  E  E  E  E    E  E  E  E  E  E  E  E
|-------------------------|-------------------------|
|-------------------------|-------------------------|
|-14-14-14-14-14-14-14-14-|-12-12-12-12-11-11-11-11-|
|--x--x--x--x--x--x--x--x-|--x--x--x--x--x--x--x--x-|
|-12-12-12-12-12-12-12-12-|-10-10-10-10--9--9--9--9-|
|-------------------------|-------------------------|


   Q   Q   Q   Q     Q   Q   Q   Q     Q   Q   Q   Q     Q   Q   Q   Q
|-----------------|-----------------|-----------------|-----------------|
|-----------------|-----------------|-----------------|-----------------|
|-----------------|-----------------|-----------------|-----------------|
|--0---0---0---0--|--0---0---7---7--|--0---0---0---0--|--0---0---7---8--|
|--0---0---0---0--|--0---0---7---7--|--0---0---0---0--|--0---0---7---8--|
|--0---0---0---0--|--0---0---7---7--|--0---0---0---0--|--0---0---7---8--|
|
|  Q   Q   Q   Q     Q   Q   Q   Q     Q   Q   Q   Q     Q   Q   Q   Q
|-----------------|-----------------|-----------------|-----------------|
|-----------------|-----------------|-----------------|-----------------|
|-11--11--11--11--|-11--11--12--12--|-11--11--11--11--|-11--11--12--12--|
|--x---x---x---x--|--x---x---x---x--|--x---x---x---x--|--x---x---x---x--|
|--9---9---9---9--|--9---9--10--10--|--9---9---9---9--|--9---9--10--10--|
|-----------------|-----------------|-----------------|-----------------|


   Q   Q   Q   Q     Q   Q   Q   Q
|-----------------|-----------------|
|-----------------|-----------------|
|-----------------|-----------------|
|--9---9---9---9--|--9---9---9---9--|
|--9---9---9---9--|--9---9---9---9--|
|--9---9---9---9--|--9---9---9---9--|
|
|  Q   Q   Q   Q     Q   Q   Q   Q
|-----------------|-----------------|
|-----------------|-----------------|
|-11--11--11--11--|-11--11--12--12--|
|--x---x---x---x--|--x---x---x---x--|
|--9---9---9---9--|--9---9--10--10--|
|-----------------|-----------------|


   E  E  E  E  E  E  E  E    E  E  E  E  E  E  E  E
|-------------------------|-------------------------|
|-------------------------|-------------------------|
|-------------------------|-------------------------|
|--5--5--5--5--5--5--5--5-|--5--5--5--5--5--5--5--5-|
|--5--5--5--5--5--5--5--5-|--5--5--5--5--5--5--5--5-|
|--5--5--5--5--5--5--5--5-|--5--5--5--5--5--5--5--5-|
|
|  E  E  E  E  E  E  E  E    E  E  E  E  E  E  E  E
|-------------------------|-------------------------|
|-------------------------|-------------------------|
|-14-14-14-14-14-14-14-14-|-12-12-12-12-11-11-11-11-|
|--x--x--x--x--x--x--x--x-|--x--x--x--x--x--x--x--x-|
|-12-12-12-12-12-12-12-12-|-10-10-10-10--9--9--9--9-|
|-------------------------|-------------------------|


 Guitar Solo
   Q   +E  E +Q    Q     +Q    Q   Q   Q
|----------------------|-------------------|
|----------------------|-------------------|
|----------------------|-------------------|
|-/7---(7)-------------|-----------7-------|
|----------5-(5)---7---|-(7)---5-------5---|
|----------------------|-------------------|
|
|  E E  E  E  E  E E E    E  E E E E E E E
|----------------------|-------------------|
|----------------------|-------------------|
|----------------------|-------------------|
|--9-9--9--9--9--9-9-9-|--9--9-9-9-9-9-9-9-|
|--9-9--9--9--9--9-9-9-|--9--9-9-9-9-9-9-9-|
|--9-9--9--9--9--9-9-9-|--9--9-9-9-9-9-9-9-|


                      ~~~~~~~~~~
   Q    +E   E  +Q    Q     +W
|-------------------------|-------------------|
|-------------------------|-------------------|
|-------------------------|-------------------|
|-11---(11)-12-(12)---9---|-(9)---------------|
|-------------------------|-------------------|
|-------------------------|-------------------|
|
|  E E   E   E   E  E E E    E  E E E E E E E
|-------------------------|-------------------|
|-------------------------|-------------------|
|-------------------------|-------------------|
|--0-0---0---0---0--0-0-0-|--0--0-0-0-0-0-0-0-|
|--0-0---0---0---0--0-0-0-|--0--0-0-0-0-0-0-0-|
|--0-0---0---0---0--0-0-0-|--0--0-0-0-0-0-0-0-|


   Q    +E  E +Q     Q      +Q    Q    Q   Q
|------------------------|---------------------|
|------------------------|------------10-------|
|-11---(11)--------------|--------9--------9---|
|-----------9-(9)---12---|-(12)----------------|
|------------------------|---------------------|
|------------------------|---------------------|
|
|  E E   E  E  E  E  E E     E  E E E  E E E E
|------------------------|---------------------|
|------------------------|---------------------|
|------------------------|---------------------|
|--7-7---7--7--7--7--7-7-|---7--7-7-7--7-7-7-7-|
|--7-7---7--7--7--7--7-7-|---7--7-7-7--7-7-7-7-|
|--7-7---7--7--7--7--7-7-|---7--7-7-7--7-7-7-7-|


                         ~~
   W                     W
|---------------------|------------------|
|---------------------|------------------|
|-11b12---------------|-11---------------|
|---------------------|------------------|
|---------------------|------------------|
|---------------------|------------------|
|
|  E    E E E E E E E    E E E E E E E E
|---------------------|------------------|
|---------------------|------------------|
|---------------------|------------------|
|--5----5-5-5-5-5-5-5-|--5-5-5-5-5-5-5-5-|
|--5----5-5-5-5-5-5-5-|--5-5-5-5-5-5-5-5-|
|--5----5-5-5-5-5-5-5-|--5-5-5-5-5-5-5-5-|


   E  E  E  E  E  E  E  E    E  E  E  E  E  E  E  E
|-------------------------|-------------------------|
|-19-19-19----------------|-------------19-19-------|
|----------16-16-16-19-19-|-19-16-16-16-------16-16-|
|-------------------------|-------------------------|
|-------------------------|-------------------------|
|-------------------------|-------------------------|
|
|  E  E  E  E  E  E  E  E    E  E  E  E  E  E  E  E
|-------------------------|-------------------------|
|-------------------------|-------------------------|
|-------------------------|-------------------------|
|--9--9--9--9--9--9--9--9-|--9--9--9--9--9--9--9--9-|
|--9--9--9--9--9--9--9--9-|--9--9--9--9--9--9--9--9-|
|--9--9--9--9--9--9--9--9-|--9--9--9--9--9--9--9--9-|


   E  E  E  E  E  E  E  E    E  E  E  E  Q       +Q
|-------------------------|----------------------------|
|-19-19-19----------------|-------------19b20r==(19)---|
|----------16-16-16-19-19-|-19-16-16-16----------------|
|-------------------------|----------------------------|
|-------------------------|----------------------------|
|-------------------------|----------------------------|
|
|  E  E  E  E  E  E  E  E    E  E  E  E  E    E   E  E
|-------------------------|----------------------------|
|-------------------------|----------------------------|
|-------------------------|----------------------------|
|--0--0--0--0--0--0--0--0-|--0--0--0--0--0----0---0--0-|
|--0--0--0--0--0--0--0--0-|--0--0--0--0--0----0---0--0-|
|--0--0--0--0--0--0--0--0-|--0--0--0--0--0----0---0--0-|


   E  E  E  E  E  E  E  E    E  E  E  E  E  E  E  E
|-------------------------|-------------------------|
|-17-17-17----------17-17-|-17----------------------|
|----------14-14-14-------|----16-16-16-18-18-16-16-|
|-------------------------|-------------------------|
|-------------------------|-------------------------|
|-------------------------|-------------------------|
|
|  E  E  E  E  E  E  E  E    E  E  E  E  E  E  E  E
|-------------------------|-------------------------|
|-------------------------|-------------------------|
|-------------------------|-------------------------|
|--7--7--7--7--7--7--7--7-|--7--7--7--7--7--7--7--7-|
|--7--7--7--7--7--7--7--7-|--7--7--7--7--7--7--7--7-|
|--7--7--7--7--7--7--7--7-|--7--7--7--7--7--7--7--7-|


   E  E  E  E  E  E  E  E    E  E  E  E  Q       +Q
|-------------------------|----------------------------|
|-------------------------|-------------19b20r==(19)---|
|-------------------16-16-|-16-19-19-19----------------|
|-17-17-17-19-19-19-------|----------------------------|
|-------------------------|----------------------------|
|-------------------------|----------------------------|
|
|  E  E  E  E  E  E  E  E    E  E  E  E  E    E   E  E
|-------------------------|----------------------------|
|-------------------------|----------------------------|
|-------------------------|----------------------------|
|--5--5--5--5--5--5--5--5-|--5--5--5--5--5----5---5--5-|
|--5--5--5--5--5--5--5--5-|--5--5--5--5--5----5---5--5-|
|--5--5--5--5--5--5--5--5-|--5--5--5--5--5----5---5--5-|


 Chorus
   W           +W            +W            +W
|-----------|-------------|-------------|---------|
|-15--------|-(15)--------|-(15)--------|-(15)----|
|-----------|-------------|-------------|---------|
|-----------|-------------|-------------|---------|
|-----------|-------------|-------------|---------|
|-----------|-------------|-------------|---------|
|
|  W           +W            +W            +W
|-----------|-------------|-------------|---------|
|-----------|-------------|-------------|---------|
|-----------|-------------|-------------|---------|
|--0--------|--(0)--------|--(0)--------|--(0)----|
|--0--------|--(0)--------|--(0)--------|--(0)----|
|--0--------|--(0)--------|--(0)--------|--(0)----|


   Q   Q   Q   Q     Q   Q   Q   Q     Q   Q   Q   Q     Q   Q   Q   Q
|-----------------|-----------------|-----------------|-----------------|
|-----------------|-----------------|-----------------|-----------------|
|-----------------|-----------------|-----------------|-----------------|
|--9---9---9---9--|--9---9---9---9--|--5---5---5---5--|--5---5---5---5--|
|--9---9---9---9--|--9---9---9---9--|--5---5---5---5--|--5---5---5---5--|
|--9---9---9---9--|--9---9---9---9--|--5---5---5---5--|--5---5---5---5--|
|
|  Q   Q   Q   Q     Q   Q   Q   Q     Q   Q   Q   Q     Q   Q   Q   Q
|-----------------|-----------------|-----------------|-----------------|
|-----------------|-----------------|-----------------|-----------------|
|-11--11--11--11--|-11--11--12--12--|-14--14--14--14--|-12--12--11--11--|
|--x---x---x---x--|--x---x---x---x--|--x---x---x---x--|--x---x---x---x--|
|--9---9---9---9--|--9---9--10--10--|-12--12--12--12--|-10--10---9---9--|
|-----------------|-----------------|-----------------|-----------------|


   Q   Q   Q   Q     Q   Q   Q   Q     Q   Q   Q   Q     Q   Q   Q   Q
|-----------------|-----------------|-----------------|-----------------|
|-----------------|-----------------|-----------------|-----------------|
|-----------------|-----------------|-----------------|-----------------|
|--0---0---0---0--|--0---0---7---7--|--0---0---0---0--|--0---0---7---8--|
|--0---0---0---0--|--0---0---7---7--|--0---0---0---0--|--0---0---7---8--|
|--0---0---0---0--|--0---0---7---7--|--0---0---0---0--|--0---0---7---8--|
|
|  Q   Q   Q   Q     Q   Q   Q   Q     Q   Q   Q   Q     Q   Q   Q   Q
|-----------------|-----------------|-----------------|-----------------|
|-----------------|-----------------|-----------------|-----------------|
|-11--11--11--11--|-11--11--12--12--|-11--11--11--11--|-11--11--12--12--|
|--x---x---x---x--|--x---x---x---x--|--x---x---x---x--|--x---x---x---x--|
|--9---9---9---9--|--9---9--10--10--|--9---9---9---9--|--9---9--10--10--|
|-----------------|-----------------|-----------------|-----------------|


   Q   Q   Q   Q     Q   Q   Q   Q
|-----------------|-----------------|
|-----------------|-----------------|
|-----------------|-----------------|
|--9---9---9---9--|--9---9---9---9--|
|--9---9---9---9--|--9---9---9---9--|
|--9---9---9---9--|--9---9---9---9--|
|
|  Q   Q   Q   Q     Q   Q   Q   Q
|-----------------|-----------------|
|-----------------|-----------------|
|-11--11--11--11--|-11--11--12--12--|
|--x---x---x---x--|--x---x---x---x--|
|--9---9---9---9--|--9---9--10--10--|
|-----------------|-----------------|


   E  E  E  E  E  E  E  E    E  E  E  E  E  E  E  E
|-------------------------|-------------------------|
|-------------------------|-------------------------|
|-------------------------|-------------------------|
|--5--5--5--5--5--5--5--5-|--5--5--5--5--5--5--5--5-|
|--5--5--5--5--5--5--5--5-|--5--5--5--5--5--5--5--5-|
|--5--5--5--5--5--5--5--5-|--5--5--5--5--5--5--5--5-|
|
|  E  E  E  E  E  E  E  E    E  E  E  E  E  E  E  E
|-------------------------|-------------------------|
|-------------------------|-------------------------|
|-14-14-14-14-14-14-14-14-|-12-12-12-12-11-11-11-11-|
|--x--x--x--x--x--x--x--x-|--x--x--x--x--x--x--x--x-|
|-12-12-12-12-12-12-12-12-|-10-10-10-10--9--9--9--9-|
|-------------------------|-------------------------|


 Out-Chorus
   E  E  E  E  E  E  E  E    E  E  E  E  E  E  E  E
|-------------------------|-------------------------|
|-------------------------|-------------------------|
|-------------------------|-------------------------|
|--0--0--0--0--0--0--0--0-|--0--0--0--0--7--7--7--7-|
|--0--0--0--0--0--0--0--0-|--0--0--0--0--7--7--7--7-|
|--0--0--0--0--0--0--0--0-|--0--0--0--0--7--7--7--7-|
|
|  E  E  E  E  E  E  E  E    E  E  E  E  E  E  E  E
|-------------------------|-------------------------|
|-------------------------|-------------------------|
|-11-11-11-11-11-11-11-11-|-11-11-11-11-12-12-12-12-|
|--x--x--x--x--x--x--x--x-|--x--x--x--x--x--x--x--x-|
|--9--9--9--9--9--9--9--9-|--9--9--9--9-10-10-10-10-|
|-------------------------|-------------------------|


   E  E  E  E  E  E  E  E    E  E  E  E  E  E  E  E
|-------------------------|-------------------------|
|-------------------------|-------------------------|
|-------------------------|-------------------------|
|--0--0--0--0--0--0--0--0-|--0--0--0--0--7--7--8--8-|
|--0--0--0--0--0--0--0--0-|--0--0--0--0--7--7--8--8-|
|--0--0--0--0--0--0--0--0-|--0--0--0--0--7--7--8--8-|
|
|  E  E  E  E  E  E  E  E    E  E  E  E  E  E  E  E
|-------------------------|-------------------------|
|-------------------------|-------------------------|
|-11-11-11-11-11-11-11-11-|-11-11-11-11-12-12-12-12-|
|--x--x--x--x--x--x--x--x-|--x--x--x--x--x--x--x--x-|
|--9--9--9--9--9--9--9--9-|--9--9--9--9-10-10-10-10-|
|-------------------------|-------------------------|


   E  E  E  E  E  E  E  E    E  E  E  E  E  E  E  E
|-------------------------|-------------------------|
|-------------------------|-------------------------|
|-------------------------|-------------------------|
|--9--9--9--9--9--9--9--9-|--9--9--9--9--9--9--9--9-|
|--9--9--9--9--9--9--9--9-|--9--9--9--9--9--9--9--9-|
|--9--9--9--9--9--9--9--9-|--9--9--9--9--9--9--9--9-|
|
|  E  E  E  E  E  E  E  E    E  E  E  E  E  E  E  E
|-------------------------|-------------------------|
|-------------------------|-------------------------|
|-11-11-11-11-11-11-11-11-|-11-11-11-11-12-12-12-12-|
|--x--x--x--x--x--x--x--x-|--x--x--x--x--x--x--x--x-|
|--9--9--9--9--9--9--9--9-|--9--9--9--9-10-10-10-10-|
|-------------------------|-------------------------|


   E  E  E  E  E  E  E  E    E  E  E  E  E  E  E  E
|-------------------------|-------------------------|
|-------------------------|-------------------------|
|-------------------------|-------------------------|
|--5--5--5--5--5--5--5--5-|--5--5--5--5--5--5--5--5-|
|--5--5--5--5--5--5--5--5-|--5--5--5--5--5--5--5--5-|
|--5--5--5--5--5--5--5--5-|--5--5--5--5--5--5--5--5-|
|
|  E  E  E  E  E  E  E  E    E  E  E  E  E  E  E  E
|-------------------------|-------------------------|
|-------------------------|-------------------------|
|-14-14-14-14-14-14-14-14-|-12-12-12-12-11-11-11-11-|
|--x--x--x--x--x--x--x--x-|--x--x--x--x--x--x--x--x-|
|-12-12-12-12-12-12-12-12-|-10-10-10-10--9--9--9--9-|
|-------------------------|-------------------------|


   E  E  E  E  E  E  E  E    E  E  E  E  E  E  E  E
|-------------------------|-------------------------|
|-------------------------|-------------------------|
|-------------------------|-------------------------|
|--0--0--0--0--0--0--0--0-|--0--0--0--0--7--7--7--7-|
|--0--0--0--0--0--0--0--0-|--0--0--0--0--7--7--7--7-|
|--0--0--0--0--0--0--0--0-|--0--0--0--0--7--7--7--7-|
|
|  E  E  E  E  E  E  E  E    E  E  E  E  E  E  E  E
|-------------------------|-------------------------|
|-------------------------|-------------------------|
|-11-11-11-11-11-11-11-11-|-11-11-11-11-12-12-12-12-|
|--x--x--x--x--x--x--x--x-|--x--x--x--x--x--x--x--x-|
|--9--9--9--9--9--9--9--9-|--9--9--9--9-10-10-10-10-|
|-------------------------|-------------------------|


   E  E  E  E  E  E  E  E    E  E  E  E  E  E  E  E
|-------------------------|-------------------------|
|-------------------------|-------------------------|
|-------------------------|-------------------------|
|--0--0--0--0--0--0--0--0-|--0--0--0--0--7--7--8--8-|
|--0--0--0--0--0--0--0--0-|--0--0--0--0--7--7--8--8-|
|--0--0--0--0--0--0--0--0-|--0--0--0--0--7--7--8--8-|
|
|  E  E  E  E  E  E  E  E    E  E  E  E  E  E  E  E
|-------------------------|-------------------------|
|-------------------------|-------------------------|
|-11-11-11-11-11-11-11-11-|-11-11-11-11-12-12-12-12-|
|--x--x--x--x--x--x--x--x-|--x--x--x--x--x--x--x--x-|
|--9--9--9--9--9--9--9--9-|--9--9--9--9-10-10-10-10-|
|-------------------------|-------------------------|


   E  E  E  E  E  E  E  E    E  E  E  E  E  E  E  E
|-------------------------|-------------------------|
|-------------------------|-------------------------|
|-------------------------|-------------------------|
|--9--9--9--9--9--9--9--9-|--9--9--9--9--9--9--9--9-|
|--9--9--9--9--9--9--9--9-|--9--9--9--9--9--9--9--9-|
|--9--9--9--9--9--9--9--9-|--9--9--9--9--9--9--9--9-|
|
|  E  E  E  E  E  E  E  E    E  E  E  E  E  E  E  E
|-------------------------|-------------------------|
|-------------------------|-------------------------|
|-11-11-11-11-11-11-11-11-|-11-11-11-11-12-12-12-12-|
|--x--x--x--x--x--x--x--x-|--x--x--x--x--x--x--x--x-|
|--9--9--9--9--9--9--9--9-|--9--9--9--9-10-10-10-10-|
|-------------------------|-------------------------|


   E  E  E  E  E  E  E  E    E  E  E  E  E  E  E  E
|-------------------------|-------------------------|
|-------------------------|-------------------------|
|-------------------------|-------------------------|
|--5--5--5--5--5--5--5--5-|--5--5--5--5--5--5--5--5-|
|--5--5--5--5--5--5--5--5-|--5--5--5--5--5--5--5--5-|
|--5--5--5--5--5--5--5--5-|--5--5--5--5--5--5--5--5-|
|
|  E  E  E  E  E  E  E  E    E  E  E  E  E  E  E  E
|-------------------------|-------------------------|
|-------------------------|-------------------------|
|-14-14-14-14-14-14-14-14-|-12-12-12-12-11-11-11-11-|
|--x--x--x--x--x--x--x--x-|--x--x--x--x--x--x--x--x-|
|-12-12-12-12-12-12-12-12-|-10-10-10-10--9--9--9--9-|
|-------------------------|-------------------------|


 Outro
  Q   E E E E Q     E E E E E E E E   E E E E E E Q     E E E E E E E E
|-----------------|-----------------|-----------------|-----------------|
|-----------------|-----------------|-----------------|-----------------|
|-----7-7-7-7-----|-7-7-7-7-----7-7-|-----7-7-7-7-----|-7-7-7-7-----7-7-|
|-----------------|---------5-5-----|-----------------|---------5-5-----|
|-5-----------7---|-----------------|-5-5---------7---|-----------------|
|-----------------|-----------------|-----------------|-----------------|
|
| E E E E E E E E   E E E E E E E E   E E E E E E E E   E E E E E E E E
|-----------------|-----------------|-----------------|-----------------|
|-----------------|-----------------|-----------------|-----------------|
|-----------------|-----------------|-----------------|-----------------|
|-0-0-0-0-0-0-0-0-|-5-5-5-5-7-7-7-7-|-0-0-0-0-0-0-0-0-|-5-5-5-5-7-7-7-7-|
|-0-0-0-0-0-0-0-0-|-5-5-5-5-7-7-7-7-|-0-0-0-0-0-0-0-0-|-5-5-5-5-7-7-7-7-|
|-0-0-0-0-0-0-0-0-|-5-5-5-5-7-7-7-7-|-0-0-0-0-0-0-0-0-|-5-5-5-5-7-7-7-7-|


  E E E E E E Q     E E E E E E E E   E E E E E E Q     E E E E E E E E
|-----------------|-----------------|-----------------|-----------------|
|-----------------|-----------------|-----------------|-----------------|
|-----7-7-7-7-----|-7-7-7-7-----7-7-|-----7-7-7-7-----|-7-7-7-7-----7-7-|
|-----------------|---------5-5-----|-----------------|---------5-5-----|
|-5-5---------7---|-----------------|-5-5---------7---|-----------------|
|-----------------|-----------------|-----------------|-----------------|
|
| E E E E E E E E   E E E E E E E E   E E E E E E E E   E E E E E E E E
|-----------------|-----------------|-----------------|-----------------|
|-----------------|-----------------|-----------------|-----------------|
|-----------------|-----------------|-----------------|-----------------|
|-0-0-0-0-0-0-0-0-|-5-5-5-5-7-7-7-7-|-0-0-0-0-0-0-0-0-|-5-5-5-5-7-7-7-7-|
|-0-0-0-0-0-0-0-0-|-5-5-5-5-7-7-7-7-|-0-0-0-0-0-0-0-0-|-5-5-5-5-7-7-7-7-|
|-0-0-0-0-0-0-0-0-|-5-5-5-5-7-7-7-7-|-0-0-0-0-0-0-0-0-|-5-5-5-5-7-7-7-7-|


  E E E E E E Q    E E E E E E E E
|----------------|-----------------|
|----------------|-----------------|
|-----7-7-7-7----|-7-7-7-7-----7-7-|
|----------------|---------5-5-----|
|-5-5---------7--|-----------------|
|----------------|-----------------|
|
| E E Q   H        W
|----------------|-----------------|
|----------------|-----------------|
|----------------|-----------------|
|-0-0------------|-----------------|
|-0-0------------|-----------------|
|-0-0------------|-----------------|


   W           +W            +W            +W
|-----------|-------------|-------------|---------|
|-----------|-------------|-------------|---------|
|-11--------|-(11)--------|-(11)--------|-(11)----|
|--x--------|--(x)--------|--(x)--------|--(x)----|
|--9--------|--(9)--------|--(9)--------|--(9)----|
|-----------|-------------|-------------|---------|
|
|  W           +W            +W            +W
|-----------|-------------|-------------|---------|
|-----------|-------------|-------------|---------|
|-----------|-------------|-------------|---------|
|--0--------|--(0)--------|--(0)--------|--(0)----|
|--0--------|--(0)--------|--(0)--------|--(0)----|
|--0--------|--(0)--------|--(0)--------|--(0)----|




--------------------------------------------------------------------------------


Duration Legend
---------------
W - whole; H - half; Q - quarter; E - 8th; S - 16th; T - 32nd; X - 64th; a - acciaccatura
+ - note tied to previous; . - note dotted; .. - note double dotted
Uncapitalized letters represent notes that are staccato (1/2 duration)
Irregular groupings are notated above the duration line
Duration letters will always appear directly above the note/fret number it represents the
duration for.  Duration letters with no fret number below them represent rests.  Multi-
bar rests are notated in the form Wxn, where n is the number of bars to rest for.  Low
melody durations appear below the staff

Tablature Legend
----------------
 h   - hammer-on
 p   - pull-off
 b   - bend
 pb  - pre-bend
 r   - bend release (if no number after the r, then release immediately)
 /\  - slide into or out of (from/to "nowhere")
 s   - legato slide
 S   - shift slide
 - natural harmonic
[n]  - artificial harmonic
n(n) - tapped harmonic
 ~   - vibrato
 tr  - trill
 T   - tap
 TP  - trem. picking
 PM  - palm muting
\n/  - tremolo bar dip; n = amount to dip
 \n  - tremolo bar down
 n/  - tremolo bar up
/n\  - tremolo bar inverted dip
 =   - hold bend; also acts as connecting device for hammers/pulls
 <> - volume swell (louder/softer)
 x   - on rhythm slash represents muted slash
 o   - on rhythm slash represents single note slash

Misc Legend
-----------
 |  - bar
||  - double bar
||o - repeat start
o|| - repeat end
*|  - double bar (ending)
 :  - bar (freetime)
 $  - Segno
 &  - Coda
Tempo markers -  = BPM(8/16=s8/s16), where s8 = swing 8ths, s16 = swing 16ths


            
            
Suggest correction
Creating personal tab
Creating personal tab
You can edit any tab online and save it as your Personal.

You can edit, replace or remove any tab part or add personal notes – all changes will be seen only by you.

Personal tabs can be accessed anytime from any device, even offline.
Learn more »
comments
print report bad tab
4 comments total. Showing first comments.
+2 reply
NemX162 336 Mar 03, 2009 06:51 AM

I think it's right...but it's confusing as hell to follow

0 reply
TRgtrANDvocals 228 Mar 03, 2009 06:54 AM

i appologize for that...i tabbed it with Power Tab software, and just converted it from that, if you have power tab, the version i have on there is much better

0 reply
jhunmau08 10 Feb 22, 2011 09:06 PM

NICE ! to COPY AND PASTE !
lOLX ,

guest
You may want to rate the tab now too:
select rating
Wanna post a correction for this tab? Suggest correction