Oops, an error
Loading. Please wait.

Six Feet Under The Stars Live Tab

526 views 1 this week
no commentswrite comment
1 2 3 4 5
please rate
add to favorites
launch autoscroll
font size
0
reset
how to read this tab
guitar tuner
Tab Pro tools
  • play this tab
  • loop segment
  • change instrument
  • show fretboard
  • metronome
Autoscroll
slow
fast
+/-
esc
set tempo
stop
Contributor
Difficulty
Tuning
novice
C# G# C# F# A# D#
All Time Low - Six Feet Under the Stars Live
Tabbed by : Khalamity
Drop C#
Based on their Straight to DVD Performance

Format :

Verse 1
Chorus
Break
Verse 2
Chorus
Bridge
Breakdown
Outro


~~~~~~~~Verse 1~~~~~~~~

Alex (time off, we can kick it...)
D#|---------------------------------------------|
A#|---------------------------------------------|
F#|---------------------------------------------|
C#|-1~------66666666-66666666-66666666-66666666-|
G#|-1~------66666666-66666666-66666666-66666666-|
C#|-1~------66666666-66666666-66666666-66666666-|

D#|--------|
A#|--------|
F#|--------|
C#|-10~-6~-|
G#|-10~-6~-|
C#|-10~-6~-|


Jack
D#|--------------------------------------------------------------------|
A#|--------------------------------------------------------------------|
F#|-88888888-88888888-7~--88888888-88101010101010-77777777-77888101010-|
C#|-xxxxxxxx-xxxxxxxx-----xxxxxxxx-xxx-x-x-x-x-x--xxxxxxxx-xxxxxx-x-x--|
G#|-66666666-66666666-----66666666-668-8-8-8-8-8--55555555-556668-8-8--|
C#|--------------------------------------------------------------------|

D#|-------------------------------------------------------------------------------------|
A#|-------------------------------------------------------------------------------------|
F#|-88888888-88888888-88888888-88888888--88888888-810101010101010-77777777-788810101010-|
C#|-xxxxxxxx-xxxxxxxx-xxxxxxxx-xxxxxxxx--xxxxxxxx-xx-x-x-x-x-x-x--xxxxxxxx-xxxxx-x-x-x--|
G#|-66666666-66666666-66666666-66666666--66666666-68-8-8-8-8-8-8--55555555-56668-8-8-8--|
C#|-------------------------------------------------------------------------------------|

D#|---------xxxxxxxx-|
A#|---------xxxxxxxx-|
F#|-8~-15~--xxxxxxxx-|
C#|-x~-x-~--xxxxxxxx-|
G#|-6~-13~--xxxxxxxx-|
C#|---------xxxxxxxx-|

~~~~~~~~Chorus~~~~~~~~

Alex
D#|---------------------------------------------------------------------------------|
A#|---------------------------------------------------------------------------------|
F#|-88888888-88888888---------------------------------------------------------------|
C#|-88888888-88888888-66666666-66666666-88888888-1010101010101010-66666666-66666666-|
G#|-66666666-66666666-66666666-66666666-88888888-1010101010101010-66666666-66666666-|
C#|-------------------66666666-66666666-88888888-1010101010101010-66666666-66666666-|

D#|---------------------------------------------------------------------------|
A#|---------------------------------------------------------------------------|
F#|-88888888-88888888---------------------------------------------------------|
C#|-88888888-88888888-66666666-66666666-88888888-1010101010101010-66666666-6/-|
G#|-66666666-66666666-66666666-66666666-88888888-1010101010101010-66666666-6/-|
C#|-------------------66666666-66666666-88888888-1010101010101010-66666666-6/-|


Jack
D#|----------------------|
A#|----------------------|
F#|-88888101010-77777888-|
C#|-xxxxxx-x-x--xxxxxxxx-| x2
G#|-666668-8-8--55555666-|
C#|----------------------|

D#|---------------------------------------------|
A#|---------------------------------------------|
F#|-88888777-88888777-88888101010-1212121212777-|
C#|-xxxxxxxx-xxxxxxxx-xxxxxx-x-x--x-x-x-x-x-xxx-|
G#|-66666555-66666555-666668-8-8--1010101010555-|
C#|---------------------------------------------|

D#|----------------------|
A#|----------------------|
F#|-88888101010-77777888-|
C#|-xxxxxx-x-x--xxxxxxxx-| x2
G#|-666668-8-8--55555666-|
C#|----------------------|

D#|-------------------------------|
A#|-------------------------------|
F#|-88888777-88888777-88888101010-|
C#|-xxxxxxxx-xxxxxxxx-xxxxxx-x-x--|
G#|-66666555-66666555-666668-8-8--|
C#|-------------------------------|


~~~~~~~Break~~~~~~~

Alex
D#|----------------------|
A#|----------------------|
F#|-8~-------------/////-|
C#|-8~-------------/////-|
G#|-6~-------------/////-|
C#|----------------------|
                   Pickslide

D#|-------------------------------------|
A#|-------------------------------------|
F#|-88888888-88888888-88888888-8888////-|
C#|-xxxxxxxx-xxxxxxxx-xxxxxxxx-xxxx////-|
G#|-66666666-66666666-66666666-6666////-|
C#|-------------------------------------|
                                   Pickslide


~~~~~~~~Verse 2~~~~~~~~

Alex
D#|---------------------------------|
A#|---------------------------------|
F#|-8-8-8~---8-8-8~-----------------|
C#|-8-8-8~---8-8-8~--6-6-6~--6-6-6~-| x2
G#|-6-6-6~---6-6-6~--6-6-6~--6-6-6~-|
C#|------------------6-6-6~--6-6-6~-|

D#|-------------------------------|
A#|-------------------------------|
F#|-------------~-----------------|
C#|-10-10-10~--8-8-8~--6-6-6~--6\-|
G#|-10-10-10~--8-8-8~--6-6-6~--6\-|
C#|-10-10-10~--8-8-8~--6-6-6~--6\-|


Jack
D#|---------------|    |---------|
A#|---------------|    |---------|
F#|-------15~-----|    |---------|
C#|-12-13------13-| x10|-12~-13~-|
G#|---------------|    |---------|
C#|---------------|    |---------|


~~~~~~~Bridge~~~~~~~

Alex
D#|-----------------------------------------------------------------------------------------|
A#|-----------------------------------------------------------------------------------------|
F#|-------------~---------------------------------------88888888-88888888-------------------|
C#|-1010101010101010-1010101010101010-66666666-66666666-88888888-88888888-88888888-88888888-|
G#|-1010101010101010-1010101010101010-66666666-66666666-66666666-66666666-88888888-88888888-|
C#|-1010101010101010-1010101010101010-66666666-66666666-------------------88888888-88888888-|

D#|----------------------------------------------------------------------------------|
A#|----------------------------------------------------------------------------------|
F#|-------------~----------------------------------88-88888-8-88888------------------|
C#|-1010-1010101010-10-1010101010-66-66666-6-66666-88-88888-8-88888-88-88888-8-88888-| x2
G#|-1010-1010101010-10-1010101010-66-66666-6-66666-66-66666-6-66666-88-88888-8-88888-|
C#|-1010-1010101010-10-1010101010-66-66666-6-66666------------------88-88888-8-88888-|

Jack
D#|---------------------------------|
A#|--------11~-------9-------9---8~-|
F#|--8-8-8-----8-8-8---8-8-8---8----|
C#|---------------------------------| x3
G#|---------------------------------|
C#|---------------------------------|

D#|-------------------13-----------------|
A#|-11----9-----8------------9-----8-----|
F#|---8-8---8-8---8-8----8-8---8-8---8-8-|
C#|--------------------------------------|
G#|--------------------------------------|
C#|--------------------------------------|

D#|--------------------13---------------|
A#|----------11~----------------9---8---|
F#|--8-8-8-8-----8-8-8----8-8-8---8---8-|
C#|-------------------------------------| x3
G#|-------------------------------------|
C#|-------------------------------------|

D#|-------------------------------------|
A#|-11----9-----8-----------9-----8-----|
F#|---8-8---8-8---8-8-8-8-8---8-8---8-8-|
C#|-------------------------------------|
G#|-------------------------------------|
C#|-------------------------------------|

~~~~~~~Breakdown~~~~~~~

Alex
D#|------------------xxx-|
A#|------------------xxx-|
F#|-8~---------------xxx-|
C#|-8~-6~-8~-10~-6~--xxx-|
G#|-6~-6~-8~-10~-6~--xxx-|
C#|----6~-8~-10~-6~--xxx-|

Jack
D#|-13~------------------|
A#|----------------------|
F#|----------------------|
C#|----------------------|
G#|----------------------|
C#|----------------------|

~~~~~~~Outro~~~~~~~

Alex
D#|---------------------------------------------------------------------------------|
A#|---------------------------------------------------------------------------------|
F#|-88888888-88888888---------------------------------------------------------------|
C#|-88888888-88888888-66666666-66666666-88888888-1010101010101010-66666666-66666666-| x2
G#|-66666666-66666666-66666666-66666666-88888888-1010101010101010-66666666-66666666-|
C#|-------------------66666666-66666666-88888888-1010101010101010-66666666-66666666-|

D#|-----------| |----|
A#|-----------| |----|
F#|--------8~-| |-8\-|
C#|-10~-6~-8~-| |-8\-|
G#|-10~-6~-6~-| |-6\-|
C#|-10~-6~----| |----|

Jack
D#|-----------|    |-------------|
A#|-----------|    |-------------|
F#|-------15~-|    |-15-15-15-15-|
C#|-12-13-----| x10|-13-13-13-13-|
G#|-----------|    |-------------|
C#|-----------|    |-------------|

D#|-----------|    |-11~-13~-15~-|
A#|-----------|    |-------------|
F#|-------15~-|    |-------------|
C#|-12-13-----| x10|-------------|
G#|-----------|    |-------------|
C#|-----------|    |-------------|
comments
We did not receive enough feedback on this tab! Please rate:
print report bad tab
1 2 3 4 5
I want to post or [tab]
guest
You may want to rate the tab now too:
select rating
Please do not post tabs as comments. Select "correction" instead!