Oops, an error
Loading. Please wait.

Six Feet Under The Stars Tab

version 1
version 1

Whole song

Interactive

36,521 views 6 this week
4 commentsread comments
1 2 3 4 5
x 3
add to favorites
launch autoscroll
font size
0
reset
how to read this tab
guitar tuner
Autoscroll
slow
fast
+/-
esc
set tempo
stop
Help us to improve Ultimate-Guitar.com Take our survey!
×
Difficulty
intermediate
All Time Low
"Six Feet Under The Stars"
NickSingletonES@Hotmail.com

Intro/Verse Guitar 1
e)------------------------------------------|
b)------------------------------------------|
g)--8-8--8-8--8-8--8-8--8-8-8-8-------------|
d)--x-x--x-x--x-x--x-x--x-x-x-x-------------|
a)--6-6--6-6--6-6--6-6--6-6-6-6-------------|
e)------------------------------------------|

Verse Guitar 2
e)-------------------------------|
b)-------------------------------|
g)----------------------8~-------|
d)--6-6-6-6-6-6-6-6-6-6-8~-------|
a)--6-6-6-6-6-6-6-6-6-6-6~-------|
e)--4-4-4-4-4-4-4-4-4-4----------|

PreChorus
e)--------------|
b)--------------|
g)--5-----3~----|
d)--5~----3~----|
a)--3~----1~----|
e)--------------|

Chorus
e)----------------------------------|
b)----------------------------------|
g)--8---------8---------5---3-------|
d)--8----6----8----6----5---3---6]--|
a)--6----6----6----6----3---1---6]--|
e)-------4---------4------------4]--|

Breakdown
e)------------------------|
b)------------------------|
g)--5----3----8-----------|
d)--5----3----8----8------|
a)--3----1----6----8------|
e)-----------------6------|

Ending
e)-----------------|
b)-----------------|
g)------------8~---|
d)--8~---6~---8~---|
a)--8~---6~---6~---|
e)--6~---4~--------|
Suggest correction
Give kudos to tab author, rate the tab!
1 2 3 4 5
comments
print report bad tab
4 comments total. Showing first comments.
0 reply
prepekiddo1010 31 Sep 06, 2007 05:48 PM

Chorus!!!!!!11 THIS IS THE CHORUS!!!!
e)----------------------------------|
b)----------------------------------|
g)--8-------------------------------|
d)--8x16-6-----8-----10-----6-------|
a)--6----6-x8--8-x8--10-x8--6-x8----|
e)-------4-----6-----8------4-------|

0 reply
prepekiddo1010 31 Sep 06, 2007 08:41 PM

ITS SUCKS!!! CHECK OUT THE NEW ONE IT SOUNDS JUST LIKE IT!!!!

0 reply
prepekiddo1010 31 Sep 18, 2007 08:02 PM


e|--------------------------------------------------------------------------
B|--------------------------------------------------------------------------
G|-8------------------------------------------------------------------------
D|-x----till (0:34) -----------------------------------------------------
A|-6------------------------------------------------------------------------
E|--------------------------------------------------------------------------

guitar 2 (0:04)

e|-3----------1------------------------------------------------------------
B|---4----------4-----------------------------------------------------------
G|-----3----------3---------------------------------------------------------
D|--------------------------------------------------------------------------
A|--------------------------------------------------------------------------
E|--------------------------------------------------------------------------



GUITAR 3 cums in at (0:13)
e|--------------------------------------------------------------------------
B|--------------------------------------------------------------------------
G|---------8~~~-------------------------------------------------------------
D|-6-------8~~~-------------------------------------------------------------
A|-6-X32---6~~~-------------------------------------------------------------
E|-4------------------------------------------------------------------------

GUITAR 3 (0:28)
e|--------------------------------------------------------------------------
B|--------------------------------------------------------------------------
G|--------5~~~---3~~~-------------------------------------------------------
D|-6------5~~~---3~~~-------------------------------------------------------
A|-6-x32--3~~~---1~~~-------------------------------------------------------
E|-4------------------------------------------------------------------------

Chorus!!!!!! THIS IS THE CHORUS!!!! (0:42)
e)----------------------------------|-
b)----------------------------------| -
g)--8-------------------------------| - x 2
d)--8x16-6------8-----10-----6------| -
a)--6-- -6-x16--8-x8--10-x8--6-x16--|-
e)-------4------6-----8------4------|

this is on the 2nd time ( "Six Feet Under The Stars")
e|--------------------------------------------------------------------------
B|--------------------------------------------------------------------------
G|----------------------8~~~------------------------------------------------
D|-6-------8------------8~~~------------------------------------------------
A|-6-x 8---8------------6~~~------------------------------------------------
E|-4-------6----------------------------------------------------------------

guitar 2 (1:11)
e|--------------1----1------------------------------------------------------
B|---4-4-4-4----------------3-3---------------------------------------------
G|--3-3-3-3---3---3--------3-3----------------------------------------------
D|--------------------------------------------------------------------------
A|--------------------------------------------------------------------------
E|--------------------------------------------------------------------------


GUITAR 1 (1:13)--(1:19)

e|--------------------------------------------------------------------------
B|--------------------------------------------------------------------------
G|--8-----------------------------------------------------------------------
D|--x-----------------------------------------------------------------------
A|--6-----------------------------------------------------------------------
E|--------------------------------------------------------------------------

(1:19)
e|--------------------------------------------------------------------------
B|--------------------------------------------------------------------------
G|-88--8~~~--88--8----------------------------------------------------------
D|-88--8~~~--88--8----66--6~~~---66--6~~~----x 2----------------------------
A|-66--6~~~--66--6----66--6~~~---66--6~~~-----------------------------------
E|--------------------44--4~~~---44--4~~~-----------------------------------
.. .. .. ..


e|--------------------------------------------------------------------------
B|--------------------------------------------------------------------------
G|--------------------------------------------------------------------------
D|--10-10--10~~~-----88---8~~~-------66---6~~~------------------------------
A|--10-10--10~~~-----88---6~~~-------66---6~~~------------------------------
E|---8--8---8~~~-----66---6~~--------44---4~~~------------------------------
. . .. ..


Chorus!!!!!! THIS IS THE CHORUS!!!! (1:41)
e)-------------------------------------|-
b)-------------------------------------| -
g)--8----------------------------------| - x 2
d)--8x16-6------8-----10-----6-------8-| -
a)--6-- -6-x16--8-x8--10-x8--6-x16---8-|-
e)-------4------6-----8---

guest
You may want to rate the tab now too:
select rating
Wanna post a correction for this tab? Suggest correction