Oops, an error
Loading. Please wait.

Six Feet Under The Stars Acoustic tab

version 11
version 11
217 views 33 this week
no commentswrite comment
1 2 3 4 5
1 last vote to show rating
add to favorites
×
Save as Personal and add changes to this tab that will be seen only by you. Learn more ›
×
You can save this tab as Personal to edit and correct it or add notes. All changes will be seen only by you. Learn more »
launch autoscroll
font size
0
reset
how to read this tab
guitar tuner
edit
Autoscroll
slow
fast
+/-
esc
set tempo
stop
Six Feet Under The Stars (acoustic version)
Artist: All Time Low
Album: So Wrong It's Right (2007)

Absolutely love this song! If you enjoy this tab then please try out my acoustic version of Coffee Shop 
Soundtrack
(https://tabs.ultimate-guitar.com/a/all_time_low/coffee_shop_soundtrack_acoustic_ver3_tab.htm). 
I used this performance (https://www.youtube.com/watch?v=5xKBKDtKAmA)for reference, and I highly recommend 
taking a look at it to get an idea of the strumming pattern, which luckily is fairly simple.

CAPO 1

Tuning: DAGDAD

Verse 1:

Time to lay claim to the evidence...deserving of
D|----0~~~~~--0~~~~~~--0-0-0-0-0-0-0-0-0-0-0-0-0-0-0-0-0-0-0-0-0-0-0-0-0-0-0-0-0-0-0-0-|
A|----0~~~~~--0~~~~~~--0-0-0-0-0-0-0-0-0-0-0-0-0-0-0-0-0-0-0-0-0-0-0-0-0-0-0-0-0-0-0-0-|
G|----7~~~~~--6~~~~~~--7-7-7-7-7-7-7-7-7-7-7-7-7-7-7-7-7-7-7-7-7-7-7-7-7-7-7-7-7-7-7-7-|
D|---0-------0---------5-5-5-5-5-5-5-5-5-5-5-5-5-5-5-5-5-5-5-5-5-5-5-5-5-5-5-5-5-5-5-5-| 
A|--0-------0----------5-5-5-5-5-5-5-5-5-5-5-5-5-5-5-5-5-5-5-5-5-5-5-5-5-5-5-5-5-5-5-5-| 
D|---------------------5-5-5-5-5-5-5-5-5-5-5-5-5-5-5-5-5-5-5-5-5-5-5-5-5-5-5-5-5-5-5-5-|



A little time off....straight to hell

D|----0~~~~~--0~~~~~--0-0-0-0-0-0-0-0-0-0-0-0-0-0-0-0-0-0-0-0-0-0-0-0-0-0-0-0-0-0-0-0-|
A|----0~~~~~--0~~~~~--0-0-0-0-0-0-0-0-0-0-0-0-0-0-0-0-0-0-0-0-0-0-0-0-0-0-0-0-0-0-0-0-|
G|----7~~~~~--6~~~~~--7-7-7-7-7-7-7-7-7-7-7-7-7-7-7-7-7-7-7-7-7-7-7-7-6-6-6-6-7-7-7-7-|
D|---0-------0--------5-5-5-5-5-5-5-5-5-5-5-5-5-5-5-5-5-5-5-5-5-5-5-5-5-5-5-5-5-5-5-5-| 
A|--0-------0---------5-5-5-5-5-5-5-5-5-5-5-5-5-5-5-5-5-5-5-5-5-5-5-5-5-5-5-5-5-5-5-5-| 
D|--------------------5-5-5-5-5-5-5-5-5-5-5-5-5-5-5-5-5-5-5-5-5-5-5-5-5-5-5-5-5-5-5-5-|


Pass me another bottle honey...then I'm down

D|----0~~~~-----------0~~~~-----|
A|----0~~~~-----------0~~~~-----|
G|----11~~~-----------7~~~~-----|
D|----9~~~~-----------5~~~~-----| 
A|----9~~~~-----------5~~~~-----| 
D|----9~~~~-----------5~~~~-----|


Chorus:

Meet me on Thames Street....tension's like a fire

D|--0-0-0-0-0-0-0-0-0-0-0-0-0-0-0-0--0-0-0-0-0-0-0-0-0-0-0-0-0-0-0-0--0-0-0-0-0-0-0-0--|
A|--0-0-0-0-0-0-0-0-0-0-0-0-0-0-0-0--0-0-0-0-0-0-0-0-0-0-0-0-0-0-0-0--0-0-0-0-0-0-0-0--|
G|--7-7-7-7-9-9-9-9-6-6-6-6-7-7-7-7--7-7-7-7-7-7-7-7-7-7-7-7-7-7-7-7--9-9-9-9-9-9-9-9--|
D|--0-0-0-0-0-0-0-0-0-0-0-0-0-0-0-0--5-5-5-5-5-5-5-5-5-5-5-5-5-5-5-5--7-7-7-7-7-7-7-7--| 
A|--0-0-0-0-0-0-0-0-0-0-0-0-0-0-0-0--5-5-5-5-5-5-5-5-5-5-5-5-5-5-5-5--7-7-7-7-7-7-7-7--| 
D|--0-0-0-0-0-0-0-0-0-0-0-0-0-0-0-0--5-5-5-5-5-5-5-5-5-5-5-5-5-5-5-5--7-7-7-7-7-7-7-7--|

D|--0--0--0--0--0--0--0--0---0-0-0-0-0-0-0-0-0-0-0-0-0-0-0-0--|
A|--0--0--0--0--0--0--0--0---0-0-0-0-0-0-0-0-0-0-0-0-0-0-0-0--|
G|--11-11-11-11-11-11-11-11--7-7-7-7-7-7-7-7-7-7-7-7-7-7-7-7--|
D|--9--9--9--9--9--9--9--9---5-5-5-5-5-5-5-5-5-5-5-5-5-5-5-5--| 
A|--9--9--9--9--9--9--9--9---5-5-5-5-5-5-5-5-5-5-5-5-5-5-5-5--| 
D|--9--9--9--9--9--9--9--9---5-5-5-5-5-5-5-5-5-5-5-5-5-5-5-5--|

We'll hit South Broadway in a matter of minutes.... six feet under the stars

D|--0-0-0-0-0-0-0-0-0-0-0-0-0-0-0-0--0-0-0-0-0-0-0-0-0-0-0-0-0-0-0-0--0-0-0-0-0-0-0-0--|
A|--0-0-0-0-0-0-0-0-0-0-0-0-0-0-0-0--0-0-0-0-0-0-0-0-0-0-0-0-0-0-0-0--0-0-0-0-0-0-0-0--|
G|--7-7-7-7-9-9-9-9-6-6-6-6-7-7-7-7--7-7-7-7-7-7-7-7-7-7-7-7-7-7-7-7--9-9-9-9-9-9-9-9--|
D|--0-0-0-0-0-0-0-0-0-0-0-0-0-0-0-0--5-5-5-5-5-5-5-5-5-5-5-5-5-5-5-5--7-7-7-7-7-7-7-7--| 
A|--0-0-0-0-0-0-0-0-0-0-0-0-0-0-0-0--5-5-5-5-5-5-5-5-5-5-5-5-5-5-5-5--7-7-7-7-7-7-7-7--| 
D|--0-0-0-0-0-0-0-0-0-0-0-0-0-0-0-0--5-5-5-5-5-5-5-5-5-5-5-5-5-5-5-5--7-7-7-7-7-7-7-7--|

D|--0--0--0--0--0--0--0--0---0-0-0-0-0-0-0-0---0--|
A|--0--0--0--0--0--0--0--0---0-0-0-0-0-0-0-0---0--|
G|--11-11-11-11-11-11-11-11--7-7-7-7-7-7-7-7---7--|
D|--9--9--9--9--9--9--9--9---5-5-5-5-5-5-5-5---5--| 
A|--9--9--9--9--9--9--9--9---5-5-5-5-5-5-5-5---5--| 
D|--9--9--9--9--9--9--9--9---5-5-5-5-5-5-5-5---5--|


INTERLUDE

D|--0~~~~~~~-----------0~~~~~~~-----------|
A|--0~~~~~~~-----------0~~~~~~~-----------|
G|--7--7--7--7--7--7---6--6--6--6--6--6---|
D|--0-0--0--0--0--0-0~-0-0--0--0--0--0-0~-| 
A|--0---0--0--0--0-----0---0--0--0--0-----| 
D|--0~~~~~~~-----------0~~~~~~~-----------|


[Verse 2]

I should have known better than to call you out....tear this place to the ground

D|--0---0---0~~--0---0---0~~--0---0---0~~--0---0---0~~--0---0---0~~--0---0---0~~--0---0---0~~---0---0---0~~-|
A|--0---0---0~~--0---0---0~~--0---0---0~~--0---0---0~~--0---0---0~~--0---0---0~~--0---0---0~~---0---0---0~~-|
G|--7---7---7~~--7---7---7~~--7---7---7~~--7---7---7~~--7---7---7~~--7---7---7~~--7---7---7~~---7---7---7~~-|
D|--0---0---0~~--0---0---0~~--5---5---5~~--5---5---5~~--0---0---0~~--0---0---0~~--5---5---5~~---5---5---5~~-| 
A|--0---0---0~~--0---0---0~~--5---5---5~~--5---5---5~~--0---0---0~~--0---0---0~~--5---5---5~~---5---5---5~~-| 
D|--0---0---0~~--0---0---0~~--5---5---5~~--5---5---5~~--0---0---0~~--0---0---0~~--5---5---5~~---5---5---5~~-|

I'm gonna roll the dice, before you sober up and get gone

D|--0---0---0~~--0---0---0~~---0---0---0~~---0-0-0--|
A|--0---0---0~~--0---0---0~~---0---0---0~~---0-0-0--|
G|--9---9---9~~--11--11--11~---7---7---7~~---7-7-7--|
D|--7---7---7~~--9---9---9~~---5---5---5~~---5-5-5--| 
A|--7---7---7~~--9---9---9~~---5---5---5~~---5-5-5--| 
D|--7---7---7~~--9---9---9~~---5---5---5~~---5-5-5--|


[Chorus]

Thames Street....tension's like a fire

D|--0-0-0-0-0-0-0-0-0-0-0-0-0-0-0-0--0-0-0-0-0-0-0-0-0-0-0-0-0-0-0-0--0-0-0-0-0-0-0-0--|
A|--0-0-0-0-0-0-0-0-0-0-0-0-0-0-0-0--0-0-0-0-0-0-0-0-0-0-0-0-0-0-0-0--0-0-0-0-0-0-0-0--|
G|--7-7-7-7-9-9-9-9-6-6-6-6-7-7-7-7--7-7-7-7-7-7-7-7-7-7-7-7-7-7-7-7--9-9-9-9-9-9-9-9--|
D|--0-0-0-0-0-0-0-0-0-0-0-0-0-0-0-0--5-5-5-5-5-5-5-5-5-5-5-5-5-5-5-5--7-7-7-7-7-7-7-7--| 
A|--0-0-0-0-0-0-0-0-0-0-0-0-0-0-0-0--5-5-5-5-5-5-5-5-5-5-5-5-5-5-5-5--7-7-7-7-7-7-7-7--| 
D|--0-0-0-0-0-0-0-0-0-0-0-0-0-0-0-0--5-5-5-5-5-5-5-5-5-5-5-5-5-5-5-5--7-7-7-7-7-7-7-7--|

D|--0--0--0--0--0--0--0--0---0-0-0-0-0-0-0-0-0-0-0-0-0-0-0-0--|
A|--0--0--0--0--0--0--0--0---0-0-0-0-0-0-0-0-0-0-0-0-0-0-0-0--|
G|--11-11-11-11-11-11-11-11--7-7-7-7-7-7-7-7-7-7-7-7-7-7-7-7--|
D|--9--9--9--9--9--9--9--9---5-5-5-5-5-5-5-5-5-5-5-5-5-5-5-5--| 
A|--9--9--9--9--9--9--9--9---5-5-5-5-5-5-5-5-5-5-5-5-5-5-5-5--| 
D|--9--9--9--9--9--9--9--9---5-5-5-5-5-5-5-5-5-5-5-5-5-5-5-5--|

We'll hit South Broadway in a matter of minutes.... six feet under the stars

D|--0-0-0-0-0-0-0-0-0-0-0-0-0-0-0-0--0-0-0-0-0-0-0-0-0-0-0-0-0-0-0-0--0-0-0-0-0-0-0-0--|
A|--0-0-0-0-0-0-0-0-0-0-0-0-0-0-0-0--0-0-0-0-0-0-0-0-0-0-0-0-0-0-0-0--0-0-0-0-0-0-0-0--|
G|--7-7-7-7-9-9-9-9-6-6-6-6-7-7-7-7--7-7-7-7-7-7-7-7-7-7-7-7-7-7-7-7--9-9-9-9-9-9-9-9--|
D|--0-0-0-0-0-0-0-0-0-0-0-0-0-0-0-0--5-5-5-5-5-5-5-5-5-5-5-5-5-5-5-5--7-7-7-7-7-7-7-7--| 
A|--0-0-0-0-0-0-0-0-0-0-0-0-0-0-0-0--5-5-5-5-5-5-5-5-5-5-5-5-5-5-5-5--7-7-7-7-7-7-7-7--| 
D|--0-0-0-0-0-0-0-0-0-0-0-0-0-0-0-0--5-5-5-5-5-5-5-5-5-5-5-5-5-5-5-5--7-7-7-7-7-7-7-7--|

D|--0--0--0--0--0--0--0--0---0-0-0-0-0-0-0-0---0--|
A|--0--0--0--0--0--0--0--0---0-0-0-0-0-0-0-0---0--|
G|--11-11-11-11-11-11-11-11--7-7-7-7-7-7-7-7---7--|
D|--9--9--9--9--9--9--9--9---5-5-5-5-5-5-5-5---5--| 
A|--9--9--9--9--9--9--9--9---5-5-5-5-5-5-5-5---5--| 
D|--9--9--9--9--9--9--9--9---5-5-5-5-5-5-5-5---5--|


Bridge:

Time to lay claim to the evidence...guilty but I'm safe for one more day

D|--0-0-0-0-0-0-0-0-0-0-0-0-0-0-0-0--0-0-0-0-0-0-0-0-0-0-0-0-0-0-0-0--0-0-0-0-0-0-0-0-0-0-0-0-0-0-0-0--|
A|--0-0-0-0-0-0-0-0-0-0-0-0-0-0-0-0--0-0-0-0-0-0-0-0-0-0-0-0-0-0-0-0--0-0-0-0-0-0-0-0-0-0-0-0-0-0-0-0--|
G|--4-4-4-4-4-4-4-4-4-4-4-4-4-4-4-4--7-7-7-7-7-7-7-7-7-7-7-7-7-7-7-7--7-7-7-7-7-7-7-7-7-7-7-7-7-7-7-7--|
D|--4-4-4-4-4-4-4-4-4-4-4-4-4-4-4-4--5-5-5-5-5-5-5-5-5-5-5-5-5-5-5-5--0-0-0-0-0-0-0-0-0-0-0-0-0-0-0-0--| 
A|--2-2-2-2-2-2-2-2-2-2-2-2-2-2-2-2--5-5-5-5-5-5-5-5-5-5-5-5-5-5-5-5--0-0-0-0-0-0-0-0-0-0-0-0-0-0-0-0--| 
D|--x-x-x-x-x-x-x-x-x-x-x-x-x-x-x-x--5-5-5-5-5-5-5-5-5-5-5-5-5-5-5-5--0-0-0-0-0-0-0-0-0-0-0-0-0-0-0-0--|

D|--0-0-0-0-0-0-0-0-0-0-0-0-0-0-0-0--|
A|--0-0-0-0-0-0-0-0-0-0-0-0-0-0-0-0--|
G|--6-6-6-6-6-6-6-6-9-9-9-9-6-6-6-6--|
D|--0-0-0-0-0-0-0-0-0-0-0-0-0-0-0-0--| 
A|--0-0-0-0-0-0-0-0-0-0-0-0-0-0-0-0--| 
D|--0-0-0-0-0-0-0-0-0-0-0-0-0-0-0-0--|

Overdressed and underage...when we're six feet under the stars

D|--0-0--0-0-0-0--0--0--0-0-0-0-0--0-0--0-0-0-0--0--0--0-0-0-0-0--0-0--0-0-0-0--0--0--0-0-0-0-0--|
A|--0-0--0-0-0-0--0--0--0-0-0-0-0--0-0--0-0-0-0--0--0--0-0-0-0-0--0-0--0-0-0-0--0--0--0-0-0-0-0--|
G|--4-4--4-4-4-4--4--4--4-4-4-4-4--7-7--7-7-7-7--7--7--7-7-7-7-7--7-7--7-7-7-7--7--7--7-7-7-7-7--|
D|--4-4--4-4-4-4--4--4--4-4-4-4-4--5-5--5-5-5-5--5--5--5-5-5-5-5--4-4--4-4-4-4--4--4--4-4-4-4-4--| 
A|--2-2--2-2-2-2--2--2--2-2-2-2-2--5-5--5-5-5-5--5--5--5-5-5-5-5--5-5--5-5-5-5--5--5--5-5-5-5-5--| 
D|--x-x--x-x-x-x--x--x--x-x-x-x-x--5-5--5-5-5-5--5--5--5-5-5-5-5--x-x--x-x-x-x--x--x--x-x-x-x-x--|

D|--0-0--0-0-0-0--0--0--0-0-0-0-0--|
A|--0-0--0-0-0-0--0--0--0-0-0-0-0--|
G|--6-6--6-6-6-6--6--6--7-7-7-7-7--|
D|--4-4--4-4-4-4--4--4--4-4-4-4-4--| 
A|--5-5--5-5-5-5--5--5--5-5-5-5-5--| 
D|--x-x--x-x-x-x--x--x--x-x-x-x-x--|


Chorus:

Thames Street...because tension's like a fire

D|--0~~~~~~--0~~~~~~--0~~~--0~~~--0--|
A|--0~~~~~~--0~~~~~~--0~~~--0~~~--0--|
G|--7~~~~~~--7~~~~~~--9~~~--11~~--7--|
D|--0~~~~~~--5~~~~~~--7~~~--9~~~--5--| 
A|--0~~~~~~--5~~~~~~--7~~~--9~~~--5--| 
D|--0--------5~~~~~~--7~~~--9~~~--5--|

We'll hit South Broadway in a matter of minutes...six feet under the stars

D|--0-0-0-0-0-0-0-0-0-0-0-0-0-0-0-0--0-0-0-0-0-0-0-0-0-0-0-0-0-0-0-0--0-0-0-0-0-0-0-0--|
A|--0-0-0-0-0-0-0-0-0-0-0-0-0-0-0-0--0-0-0-0-0-0-0-0-0-0-0-0-0-0-0-0--0-0-0-0-0-0-0-0--|
G|--7-7-7-7-7-7-7-7-6-6-6-6-7-7-7-7--7-7-7-7-7-7-7-7-7-7-7-7-7-7-7-7--9-9-9-9-9-9-9-9--|
D|--0-0-0-0-0-0-0-0-0-0-0-0-0-0-0-0--5-5-5-5-5-5-5-5-5-5-5-5-5-5-5-5--7-7-7-7-7-7-7-7--| 
A|--0-0-0-0-0-0-0-0-0-0-0-0-0-0-0-0--5-5-5-5-5-5-5-5-5-5-5-5-5-5-5-5--7-7-7-7-7-7-7-7--| 
D|--0-0-0-0-0-0-0-0-0-0-0-0-0-0-0-0--5-5-5-5-5-5-5-5-5-5-5-5-5-5-5-5--7-7-7-7-7-7-7-7--|

D|--0--0--0--0--0--0--0--0---0-0-0-0-0-0-0-0-0-0-0-0-0-0-0-0--|
A|--0--0--0--0--0--0--0--0---0-0-0-0-0-0-0-0-0-0-0-0-0-0-0-0--|
G|--11-11-11-11-11-11-11-11--7-7-7-7-7-7-7-7-7-7-7-7-9-9-9-9--|
D|--9--9--9--9--9--9--9--9---5-5-5-5-5-5-5-5-5-5-5-5-7-7-7-7--| 
A|--9--9--9--9--9--9--9--9---5-5-5-5-5-5-5-5-5-5-5-5-7-7-7-7--| 
D|--9--9--9--9--9--9--9--9---5-5-5-5-5-5-5-5-5-5-5-5-7-7-7-7--|

D|--0-0-0-0-0-0-0-0-0-0-0-0-0-0-0-0--0-0-0-0-0-0-0-0-0-0-0-0-0-0-0-0--0-0-0-0-0-0-0-0--|
A|--0-0-0-0-0-0-0-0-0-0-0-0-0-0-0-0--0-0-0-0-0-0-0-0-0-0-0-0-0-0-0-0--0-0-0-0-0-0-0-0--|
G|--7-7-7-7-7-7-7-7-7-7-7-7-7-7-7-7--7-7-7-7-7-7-7-7-7-7-7-7-7-7-7-7--9-9-9-9-9-9-9-9--|
D|--0-0-0-0-0-0-0-0-0-0-0-0-0-0-0-0--5-5-5-5-5-5-5-5-5-5-5-5-5-5-5-5--7-7-7-7-7-7-7-7--| 
A|--0-0-0-0-0-0-0-0-0-0-0-0-0-0-0-0--5-5-5-5-5-5-5-5-5-5-5-5-5-5-5-5--7-7-7-7-7-7-7-7--| 
D|--0-0-0-0-0-0-0-0-0-0-0-0-0-0-0-0--5-5-5-5-5-5-5-5-5-5-5-5-5-5-5-5--7-7-7-7-7-7-7-7--|

D|--0--0--0--0--0--0--0--0---0-0-0-0-0-0-0-00-0~-0~-0~~~~~~~~--|
A|--0--0--0--0--0--0--0--0---0-0-0-0-0-0-0-0--0~-0~-0~~~~~~~~--|
G|--11-11-11-11-11-11-11-11--7-7-7-7-7-7-7-7--7~-9~-7~~~~~~~~--|
D|--9--9--9--9--9--9--9--9---5-5-5-5-5-5-5-5--5~-7~-0~~~~~~~~--| 
A|--9--9--9--9--9--9--9--9---5-5-5-5-5-5-5-5--5~-7~-0~~~~~~~~--| 
D|--9--9--9--9--9--9--9--9---5-5-5-5-5-5-5-5--5~-7~-0~~~~~~~~--|


x - mute note
~ - let ring

            
            
Suggest correction
Creating personal tab
Creating personal tab
You can edit any tab online and save it as your Personal.

You can edit, replace or remove any tab part or add personal notes – all changes will be seen only by you.

Personal tabs can be accessed anytime from any device, even offline.
Learn more »
Give kudos to tab author, rate the tab!
1 2 3 4 5
comments
print report bad tab
guest
You may want to rate the tab now too:
select rating
Wanna post a correction for this tab? Suggest correction