Oops, an error
Loading. Please wait.

Six Feet Under The Stars tab

version 2
version 2
45,481 views 9 this week
8 commentsread comments
1 2 3 4 5
x 9
add to favorites
×
Save as Personal and add changes to this tab that will be seen only by you. Learn more ›
×
You can save this tab as Personal to edit and correct it or add notes. All changes will be seen only by you. Learn more »
launch autoscroll
font size
0
reset
how to read this tab
guitar tuner
edit
Autoscroll
slow
fast
+/-
esc
set tempo
stop
Author
Difficulty
Tabbed by:kyle
Email:prepekiddo1010@aim.com

Tuning:standered  THE OTHER FUCKER MESSED IT UP! so heres how it goes!!

   GUITAR ONE!

e|---------------------------------------------------------------------------|
B|---------------------------------------------------------------------------|
G|-8-------------------------------------------------------------------------|
D|-x----till  (0:34) --------------------------------------------------------|
A|-6-------------------------------------------------------------------------|
E|---------------------------------------------------------------------------|

  guitar 2 (0:04)

e|-3----------1--------------------------------------------------------------|
B|---4----------4------------------------------------------------------------|
G|-----3----------3----------------------------------------------------------|
D|---------------------------------------------------------------------------|
A|---------------------------------------------------------------------------|
E|---------------------------------------------------------------------------|

     GUITAR 3 cums in at (0:13)
e|--------------------------------------------------------------------------|
B|--------------------------------------------------------------------------|
G|---------8~~~-------------------------------------------------------------|
D|-6-------8~~~-------------------------------------------------------------|
A|-6-X32---6~~~-------------------------------------------------------------|
E|-4------------------------------------------------------------------------|

   GUITAR 3   (0:28)
e|--------------------------------------------------------------------------|
B|--------------------------------------------------------------------------|
G|--------5~~~---3~~~-------------------------------------------------------|
D|-6------5~~~---3~~~-------------------------------------------------------|
A|-6-x32--3~~~---1~~~-------------------------------------------------------|
E|-4------------------------------------------------------------------------|

Chorus!!!!!! THIS IS THE CHORUS!!!!    (0:42)
e)----------------------------------|----------|
b)----------------------------------|  --------|
g)--8-------------------------------|    - x 2-|
d)--8x16-6------8-----10-----6------|  --------|
a)--6-- -6-x16--8-x8--10-x8--6-x16--|----------|
e)-------4------6-----8------4-----------------|

  this is on the 2nd time   ( "Six Feet Under The Stars")
e|--------------------------------------------------------------------------|
B|--------------------------------------------------------------------------|
G|----------------------8~~~------------------------------------------------|
D|-6-------8------------8~~~------------------------------------------------|
A|-6-x 8---8------------6~~~------------------------------------------------|
E|-4-------6----------------------------------------------------------------|

   guitar 2  (1:11)
e|--------------1----1------------------------------------------------------|
B|---4-4-4-4----------------3-3---------------------------------------------|
G|--3-3-3-3---3---3--------3-3----------------------------------------------|
D|--------------------------------------------------------------------------|
A|--------------------------------------------------------------------------|
E|--------------------------------------------------------------------------|


    GUITAR 1  (1:13)--(1:19)

e|--------------------------------------------------------------------------|
B|--------------------------------------------------------------------------|
G|--8-----------------------------------------------------------------------|
D|--x-----------------------------------------------------------------------|
A|--6-----------------------------------------------------------------------|
E|--------------------------------------------------------------------------|

     (1:19)
e|--------------------------------------------------------------------------|
B|--------------------------------------------------------------------------|
G|-88--8~~~--88--8----------------------------------------------------------|
D|-88--8~~~--88--8----66--6~~~---66--6~~~----x 2----------------------------|
A|-66--6~~~--66--6----66--6~~~---66--6~~~-----------------------------------|
E|--------------------44--4~~~---44--4~~~-----------------------------------|
   ..        ..       ..         ..


e|--------------------------------------------------------------------------|
B|--------------------------------------------------------------------------|
G|--------------------------------------------------------------------------|
D|--10-10--10~~~-----88---8~~~-------66---6~~~------------------------------|
A|--10-10--10~~~-----88---6~~~-------66---6~~~------------------------------|
E|---8--8---8~~~-----66---6~~--------44---4~~~------------------------------|
     .  .            ..              ..


Chorus!!!!!! THIS IS THE CHORUS!!!!    (1:41)
e)-------------------------------------|----------|
b)-------------------------------------|  --------|
g)--8----------------------------------|    - x 2-|
d)--8x16-6------8-----10-----6-------8-|  --------|
a)--6-- -6-x16--8-x8--10-x8--6-x16---8-|----------|
e)-------4------6-----8------4-------6------------|


  (2:10)

e|--------------------------------------------------------------------------|
B|--------------------------------------------------------------------------|
G|----------------------------8---------------------------------------------|
D|---10---------6-------------8-x 16---------8------------------------------|
A|---10-X 16----6--X 16-------6--------------8-x 16-------------------------|
E|----8---------4----------------------------6------------------------------|

    (2:25)  ***FIGURE OUT THE STRUMMING!!***
e|--------------------------------------------------------------------------|
B|--------------------------------------------------------------------------|
G|----------------------------8----------------------------8~~~~------------|
D|---10---------6-------------8-x 16---------8-------------8~~~~------------|
A|---10-X 16----6--X 16-------6--------------8-x 16--------6~~~~------------|
E|----8---------4----------------------------6------------------------------|

     (2:40)  ***STRUM!!***
e|--------------------------------------------------------------------------|
B|--------------------------------------------------------------------------|
G|-8~~~---------------------------------------------------------------------|
D|-8~~~--8~~~--10~~~---6~~~---8~~~---10~~~----6~~~--------------------------|
A|-6~~~--8~~~--10~~~---6~~~---8~~~---10~~~----6~~~--------------------------|
E|-------6~~~---8~~~---4~~~---6~~~----8~~~----4~~~--------------------------|


Chorus!!!!!! THIS IS THE CHORUS!!!!    (2:54)
e)-------------------------------------|----------|
b)-------------------------------------|  --------|
g)--8----------------------------------|    - x 2-|
d)--8x16-6------8-----10-----6-------8-|  --------|
a)--6-- -6-x16--8-x8--10-x8--6-x16---8-|----------|
e)-------4------6-----8------4-------6------------|


  **END!!** (3:22)
e|--------------------------------------------------------------------------|
B|-------------------------** FADE OUT **-----------------------------------|
G|-----------------------8~~~~~~~~~~~~~~~~~~~~~~----------------------------|
D|---10~~~-----8~~~------8~~~~~~~~~~~~~~~~~~~~~~~---------------------------|
A|---10~~~-----8~~~------6~~~~~~~~~~~~~~~~~~~~~~~---------------------------|
E|----8~~~-----6~~~---------------------------------------------------------|

            
            
Suggest correction
Creating personal tab
Creating personal tab
You can edit any tab online and save it as your Personal.

You can edit, replace or remove any tab part or add personal notes – all changes will be seen only by you.

Personal tabs can be accessed anytime from any device, even offline.
Learn more »
comments
print report bad tab
8 comments total. Showing first comments.
0 reply
ejscan1 10 Oct 31, 2007 06:54 PM

this is absolutly perfect great job

+2 reply
ejscan1 10 Nov 04, 2007 06:20 AM

the intro for guitar 2 should be
e|------------------------------------------------------------------|
B|-----------3----------------2-------------------------------------|
G|---------2----------------2---------------------------------------|
D|------0-----------------0-----------------------------------------|
A|------------------------------------------------------------------|
E|------------------------------------------------------------------|

0 reply
someperson 251 May 10, 2008 08:41 AM

Did anyone else notice that there's guitar 1, guitar 2, and guitar 3.
And All Time Low has 2 gutiarists?

guest
You may want to rate the tab now too:
select rating
Wanna post a correction for this tab? Suggest correction