Oops, an error
Loading. Please wait.

Six Feet Under The Stars tab

version 3
version 3
9,418 views 6 this week
9 commentsread comments
1 2 3 4 5
1 last vote to show rating
add to favorites
×
Save as Personal and add changes to this tab that will be seen only by you. Learn more ›
×
You can save this tab as Personal to edit and correct it or add notes. All changes will be seen only by you. Learn more »
launch autoscroll
font size
0
reset
how to read this tab
guitar tuner
edit
Autoscroll
slow
fast
+/-
esc
set tempo
stop
This song is probably the best on the album, (So Wrong, It's Right)
 and i decided to tab the acoustic version because i think it shows off their 
and vocal talents better. Enjoy, it's an awesome song.

the strumming pattern is pretty easy to hear in the song, so i'll let you figure it out.

***(Capo first fret)***
the whole tab is written in respect to the capo on the first fret. so when it says fret 
its the first fret after the capo. (for those who aren't familiar with capos)


Intro/Verse  2X
|----------------|-------------------|--------------------|----------------|
|------------3---|-------------------|-----------2--------|-----------2-2--|
|o-------2-------|-------------------|--------2-----------|-----------2-2--|
|o---0-----------|-------------------|-----0--------------|-----------0-0--|
|----------------|-------------------|--------------------|----------------|
|----------------|-------------------|--------------------|----------------|


 Gadd9                                 Gadd9
-----------------|-------------------|--------------------|----------------|
--3--------------|--------/----------|--3-----------------|--------/-------|
--2--------------|----O--/-----------|--2-----------------|----O--/-------o|
--0--------------|------/--O---------|--0-----------------|------/--O-----o|
--X--------------|-----/-------------|--X-----------------|-----/----------|
--5--------------|-------------------|--5-----------------|----------------|

Pre-Chorus

  Bmin7                      Bmin7     Gadd9
-----------------|-------------------|--------------------|----------------|
--3~~------------|-----------3--3--X-|--3~~---------------|----------------|
--2~~------------|-----------2--2--X-|--2~~---------------|----------------|
--0~~------------|-----------0--0--X-|--0~~---------------|----------------|
--2~~------------|-----------2--2--X-|--X-----------------|----------------|
-----------------|-------------------|--5~~---------------|----------------|

***(Hold out those two chords for two measures each)***

Chorus  2X

    D                                  Gadd9
|----------------|-------------------|--------------------|----------------|
|---2------------|--------/----------|--3-----------------|--------/-------|
|o--3------------|----O--/-----------|--2-----------------|----O--/--------|
|o--0------------|------/--O---------|--0-----------------|------/--O------|
|---0------------|-----/-------------|--X-----------------|-----/----------|
|---0------------|-------------------|--5-----------------|----------------|

  Asus4             Bmin7              Gadd9                 (1st time)
-----------------|-------------------|--------------------|----------------|
--3--------------|--3----------------|--3-----------------|--------/-------|
--2--------------|--2----------------|--2-----------------|----O--/-------o|
--2--------------|--0----------------|--0-----------------|------/--O-----o|
--0--------------|--2----------------|--x-----------------|-----/----------|
-----------------|-------------------|--5-----------------|----------------|
                                                             (2nd time)
                                                          |----------------|
                                                          |--3-------------|
                                                          |--2-------------|
                                                          |--0-------------|
                                                          |--X-------------|
                                                          |--5-------------|
                                         hit note, then mute^^


Re-intro
|----------------|-------------------|--------------------|----------------|
|------------3---|-------------------|-----------2--------|-----------2-2--|
|--------2-------|-------------------|--------2-----------|-----------2-2--|
|----0-----------|-------------------|-----0--------------|-----------0-0--|
|----------------|-------------------|--------------------|----------------|
|----------------|-------------------|--------------------|----------------|


Verse 3

    D                                   Gadd9
|-----------------|------------------|--------------------|------------------|
|---3-------------|---------/--------|--3-----------------|--3---------------|
|o--2-------------|-----O--/---------|--2-----------------|--2------------o--|
|o--0-------------|-------/--O-------|--0-----------------|--0------------o--|
|---0-------------|------/-----------|--X-----------------|--X---------------|
|---0-------------|------------------|--5-----------------|--5---------------|
  ^^-------------------------------- Repeat whole verse 1 more time----------|

   Bmin7            Asus4               Gadd9
|----------------|-------------------|--------------------|----------------|
|---3------------|---3---------------|---3----------------|--------/-------|
|---2------------|---2---------------|---2----------------|----O--/--------|
|---0------------|---2---------------|---0----------------|------/--O------|
|---2------------|---0---------------|---X----------------|-----/----------|
|----------------|-------------------|---5----------------|----------------|

**To Chorus 2X**

Bridge  2X (Different strumming patterns each time)

   Bmin7                               Gadd9
|----------------|-------------------|--------------------|----------------|
|---3------------|--------/----------|--3-----------------|-------/--------|
|o--2------------|----O--/-----------|--2-----------------|---O--/---------|
|o--0------------|------/--O---------|--0-----------------|-----/--O-------|
|---2------------|-----/-------------|--X-----------------|----/-----------|
|----------------|-------------------|--5-----------------|----------------|

   D                                   Asus4
|----------------|-------------------|--------------------|----------------|
|--3-------------|---------/---------|--3-----------------|--------/-------|
|--2-------------|-----O--/----------|--2-----------------|----O--/-------o|
|--0-------------|-------/--O--------|--2-----------------|------/--O-----o|
|--0-------------|------/------------|--0-----------------|-----/----------|
|----------------|-------------------|--------------------|----------------|


To chorus for rest of song.

Final ending for chorus

 Gadd9      Asus4      D
|-------------------------------|
|--3---------3---------3~~------|
|--2---------2---------2~~------|
|--0---------2---------0~~------|
|--X---------0---------0~~------|
|--5-------------------0~~------|
  Six feet un-der the stars

Lyrics:

Time to lay claim to the evidence,
Fingerprints sold me out but,
our footprints washed away,
from the docks down town,
it's been getting late for days,
and i think myself deserving of,
a little time off.

We can kick it here for hours,
and just mouth off about the world,
and how we know its going straight to hell
pass me another bottle honey,
the Jager's so sweet,
but if it keeps you around,
then i'm down.

(chorus)
Meet me on Thame's street
I'll take you out though
i'm hardly i'm worth your time
in the cold you look so fierce
but i'm warming up
becuase the tension's like a fire
We'll hit south broadway in a matter of miutes
like a bad movie i'll drop a line
fall in the grave i've been digging myself
but there's room for two,
six feet under the stars.

i should have known better
than to call you out
(on a night like this,
a night like this)
if not for you i know
i'd tear this place to the ground
(but i'm alright like this,
alright like this)
i'm gunna roll the dice
before you sober up
and get gone,
I'm always in over my head

Chorus X1

it's time to lay claim to the evidence
fingerprints sold me out but
our footprints washed away
i'm guilty but i'm
safe for one more day
Overdressed and underage.
do you really need to see an ID
this is embarrassing as hell,
but i can cover for it so well
when we're six feet under the stars

Chorus X1

Whoa-oh oh-ohh
Whoa-oh oh-ohh
Whoa-oh oh-ohh
Whoa-oh oh-ohh
Whoa-oh oh-ohh
Whoa-oh oh-ohh

Six feet under the stars

            
            
Suggest correction
Creating personal tab
Creating personal tab
You can edit any tab online and save it as your Personal.

You can edit, replace or remove any tab part or add personal notes – all changes will be seen only by you.

Personal tabs can be accessed anytime from any device, even offline.
Learn more »
Give kudos to tab author, rate the tab!
1 2 3 4 5
comments
print report bad tab
9 comments total. Showing first comments.
0 reply
Julian K 82 Oct 14, 2007 10:20 AM

perfect i dont care what anyone says perfect for acoustic and electric .

0 reply
neabean- 10 Oct 22, 2007 08:29 AM

how do u reach 5x023?

0 reply
knuckleUP 51 Oct 26, 2007 11:36 AM

you have to utilize your pinky neabean.

guest
You may want to rate the tab now too:
select rating
Wanna post a correction for this tab? Suggest correction