Oops, an error
Loading. Please wait.

So Long And Thanks For All The Booze Tab

version 2
version 2

Whole song

1,874 views 9 this week
no commentswrite comment
1 2 3 4 5
accurate
x 3
add to favorites
launch autoscroll
font size
0
reset
how to read this tab
guitar tuner
Autoscroll
slow
fast
+/-
esc
set tempo
stop
Help us to improve Ultimate-Guitar.com Take our survey!
×
Contributor
All Time low

So Long And Thanks For All The Booze

Tuning - Drop Db (Db,Ab,Db,Gb,Bb,Eb)

Please not x6 x12 etc. notations are approximate, listen to song for rhythm and timing


Intro   (Very rough but enough to get by)
|-----------------------------------------------------------------------------|
|-----------------------------------------------------------------------------|
|--------7--------------------------------------------------------------------| x2
|-----7----7----7-------7-------------5---------------------------------------|
|---5--------5--------7----7--------5---5---5---------------------------------|
|-------------------7---7----7----5-------5-----------------------------------|

|-----------------------------------------------------------------------------|
|-----------------------------------------------------------------------------|
|---------111111-----------101010---------777---------------------------------| x2
|---000---x-x-x------000---x-x-x----000---xxx---------------------------------|
|---000---9-9-9------000---8-8-8----000---555----0--5--0--5--0--3-------------|
|---000--------------000------------000----------0--5--0--5--0--3-------------|

( |---------------------------------------------------------------------------    )
( |---------------------------------------------------------------------------    )
( |---------111111----------10----------777----------------------------------- x2 ) Optional
( |---000---x-x-x-----777---x----555----xxx-----------------------------------    )
( |---000---9-9-9-----777---8----555----555----0--5--0--5--0--3---------------    )
( |---000-------------777--------555-----------0--5--0--5--0--3---------------    )

Verse   (Very rough but enough to get by)
|-----------------------------------------------------------------------------|
|-----------------------------------------------------------------------------|
|--------7--------------------------------------------------------------------| x2
|-----7----7----7-------7-------------5---------------------------------------|
|---5--------5--------7----7--------5---5---5---------------------------------|
|-------------------7---7----7----5-------5-----------------------------------|

|-----------------------------------------------------------------------------|
|-----------------------------------------------------------------------------|
|---7777-7777-----------------------------------------------------------------| x2
|---7777-7777--7777-7777--5555-5555-5555-5555---------------------------------|
|---5555-5555--7777-7777--5555-5555-5555-5555---------------------------------|
|--------------7777-7777--5555-5555-5555-5555---------------------------------|
    ...  ...   ...  ...   ...  ...  ...  ...

Pre chorus
|-----------------------------------------------------------------------------|
|-----------------------------------------------------------------------------|
|-----------------------------------------------------------------------------| x2
|-------10---10\9--9\8-88\7---------------------------------------------------|
|-----------------------------------------------------------------------------|
|-----00---0------------------------------------------------------------------|
Chorus
|---------------------------------------------------------------------------------|
|---------------------------------------------------------------------------------|
|---7-----------7----------7------------------------------------------------------|
|---7---7---5---7--7---5---7---7---5---8---10--10-10-10-10-10\--------------------|
|---5---7---5---5--7---5---5---7---5---8---10--10-10-10-10-10\--------------------|
|-------7---5------7---5-------7---5---8---10--10-10-10-10-10\--------------------|
   x6  x6  x12 x6 x6  x12 x6  x6  x12 x12       . .  .  .

Post chorus
|-----------------------------------------------------------------------------|
|-----------------------------------------------------------------------------|
|---------111111-----------101010---------777---------------------------------|x2
|---000---x-x-x------000---x-x-x----000---xxx---------------------------------|
|---000---9-9-9------000---8-8-8----000---555----0--5--0--5--0--3-------------|
|---000--------------000------------000----------0--5--0--5--0--3-------------|

( |---------------------------------------------------------------------------    )
( |---------------------------------------------------------------------------    )
( |---------11----------10----------7----------------------------------------- x2 ) Optional
( |---000---x-----777---x----555----x-----------------------------------------    )
( |---000---9-----777---8----555----5----0--5--0--5--0--3---------------------    )
( |---000---------777--------555---------0--5--0--5--0--3---------------------    )

Verse   (Very rough but enough to get by)
|-----------------------------------------------------------------------------|
|-----------------------------------------------------------------------------|
|--------7--------------------------------------------------------------------| x2
|-----7----7----7-------7-------------5---------------------------------------|
|---5--------5--------7----7--------5---5---5---------------------------------|
|-------------------7---7----7----5-------5-----------------------------------|

|-----------------------------------------------------------------------------|
|-----------------------------------------------------------------------------|
|---77777777------------------------------------------------------------------| x2
|---77777777---77777777---5555555555555555------------------------------------|
|---55555555---77777777---5555555555555555------------------------------------|
|--------------77777777---5555555555555555------------------------------------|
    ........   ........   ................

Pre chorus
|-----------------------------------------------------------------------------|
|-----------------------------------------------------------------------------|
|-----------------------------------------------------------------------------| x2
|-------10---10\9--9\8-88\7---------------------------------------------------|
|-----------------------------------------------------------------------------|
|-----00---0------------------------------------------------------------------|
Chorus
|-----------------------------------------------------------------------------|
|-----------------------------------------------------------------------------|
|---7-----------7-----------7-------------------------------------------------|
|---7---7---5---7---7---5---7---7---5---8---10--10-10-10-10-10\---------------|
|---5---7---5---5---7---5---5---7---5---8---10--10-10-10-10-10\---------------|
|-------7---5-------7---5-------7---5---8---10--10-10-10-10-10\---------------|
   x6  x6  x12 x6  x6  x12 x6  x6  x12 x12      .  .  .  .

Bridge
|-----------------------------------------------------------------------------|
|-----------------------------------------------------------------------------|
|------------------77---77777---77----777777----------------------------------|
|--0~-00000~-------77---77777---77----777777----------------------------------|
|--0~-00000~-------55---55555---55----555555----------------------------------|
|--0~-00000~------------------------------------------------------------------|
                    .            .
                    x20          x20
Outro
|-----------------------------------------------------------------------------|
|-K---------------------------------------------------------------------------|
|-A------7-----------7--------------------------------------------------------|
|-E--5---7---7---5---7---7---5---8---10--8888888888888--10\----0~-0-X---------|
|-R--5---5---7---5---5---7---5---8---10--8888888888888--10\----0~-0-X---------|
|-B--5-------7---5-------7---5---8---10--8888888888888--10\----0~-0-X---------|
    x12 x6  x6  x12 x6  x6  x12 x12 x12  ........      x7



\ - Slide down
comments
We did not receive enough feedback on this tab! Please rate:
print report bad tab
1 2 3 4 5
I want to post or [tab]
guest
You may want to rate the tab now too:
select rating
Please do not post tabs as comments. Select "correction" instead!