Oops, an error
Loading. Please wait.

So Long Soldier Tab

version 2
version 2

Whole song

Interactive

2,289 views 6 this week
no commentswrite comment
1 2 3 4 5
accurate
x 3
add to favorites
launch autoscroll
font size
0
reset
how to read this tab
guitar tuner
Autoscroll
slow
fast
+/-
esc
set tempo
stop
Help us to improve Ultimate-Guitar.com Take our survey!
×
Author
All Time Low

So Long Soldier

Drop D Tuning

Please not x10 x12 etc. notations are approximate, listen to song for rhythm and timing.

(Sorry fellas about version 1, I forgot to break up tab intro verse etc. hope this 
is better, cheers)


Intro
|----------------------------------------------------------------------------------|
|----------------------------------------------------------------------------------|
|----------------------------------------------------------------------------------| x4
|----------------------------------------------------------------------------------|
|-----6---7---9---11---6---7----9b-----6---7---9---11--6---7---2b------------------|
|---0---0---0---0----0---0---0-------0---0---0---0---0---0---0---------------------|

Verse
|----------------------------------------------------------------------------------|
|----------------------------------------------------------------------------------|
|----6-------------------4-----6-------------------4-444-4-444---------------------| x2
|----6----6----7----2----4-----6----6----7----2----4-444-4-444---------------------|
|----4----6----7----2----2-----4----6----7----2----2-222-2-222---------------------|
|---------6----7----2---------------6----7----2------------------------------------|
     x12  x12  x12  x6   x6    x12  x12  x12  x6     ...   ...

Pre Chorus
|----------------------------------------------------------------------------------|
|----------------------------------------------------------------------------------|
|---22-222-222-22-6--44-444-444-44-6--22-222-222-22-6--4-444444-4\-----------------|
|---22-222-222-22-6--44-444-444-44-6--22-222-222-22-6--4-444444-4\-----------------|
|---00-000-000-00-4--22-222-222-22-4--00-000-000-00-4--2-222222-2\-----------------|
|----------------------------------------------------------------------------------|
    .. ... ... ..    .. ... ... ..    .. ... ... ..      ......

Chorus
|-------------------------------------------------------------------------------------|
|-------------------------------------------------------------------------------------|
|-------444------2---444------6----4----2----2-222-2-222------------------------------|
|---2---444--x2--2---444--x2--6----4----2----2-222-2-222------------------------------|
|---2---222------0---222------4----2----0----0-000-0-000------------------------------|
|---2---------------------------------------------------------------------------------|
    x10          x10          x10  x10  x15    ...   ...

Post Chorus
|----------------------------------------------------------------------------------|
|----------------------------------------------------------------------------------|
|----------------------------------------------------------------------------------| x2
|----------------------------------------------------------------------------------|
|-----6---7---9---11---6---7----9b-----6---7---9---11--6---7---2b------------------|
|---0---0---0---0----0---0---0-------0---0---0---0---0---0---0---------------------|

Verse
|----------------------------------------------------------------------------------|
|----------------------------------------------------------------------------------|
|----6--6------------------------4--4----------------------------------------------| x2
|----6--6---6--6---7--7---2--2---4--4----------------------------------------------|
|----4--4---6--6---7--7---2--2---2--2----------------------------------------------|
|-----------6--6---7--7---2--2-----------------------------------------------------|
        .      .      .      .      .
        x14    x14    x14    x6     x6
Pre Chorus
|----------------------------------------------------------------------------------|
|----------------------------------------------------------------------------------|
|---22-222-222-22-6--44-444-444-44-6--22-222-222-22-6--4-444444-4\-----------------|
|---22-222-222-22-6--44-444-444-44-6--22-222-222-22-6--4-444444-4\-----------------|
|---00-000-000-00-4--22-222-222-22-4--00-000-000-00-4--2-222222-2\-----------------|
|----------------------------------------------------------------------------------|
    .. ... ... ..    .. ... ... ..    .. ... ... ..      ......

chorus
|----------------------------------------------------------------------------------|
|----------------------------------------------------------------------------------|
|-------444-------2---444-------6----4----2----2-222-2-222-------------------------|
|---2---444--x2---2---444--x2---6----4----2----2-222-2-222-------------------------|
|---2---222-------0---222-------4----2----0----0-000-0-000-------------------------|
|---2------------------------------------------------------------------------------|
    x10           x10           x10  x10  x15    ...   ...

Post Chorus
|----------------------------------------------------------------------------------|
|----------------------------------------------------------------------------------|
|----------------------------------------------------------------------------------| x2
|----------------------------------------------------------------------------------|
|-----6---7---9---11---6---7----9b-----6---7---9---11--6---7---2b------------------|
|---0---0---0---0----0---0---0-------0---0---0---0---0---0---0---------------------|

Outro
|----------------------------------------------------------------------------------|
|----------------------------------------------------------------------------------|
|--------2----6----4----2----------------------------------------------------------|  clean
|---2----2----6----4----2----------------------------------------------------------|
|---2----0----4----2----0----------------------------------------------------------|
|---2------------------------------------------------------------------------------|
    x24  x24  x12  x12  x25


\ - Slide down
b - Bend
Suggest correction
What's this?
You can suggest a correction to this tab. Community and Mods will review your correction and vote to approve or reject it.
comments
We did not receive enough feedback on this tab! Please rate:
print report bad tab
1 2 3 4 5
guest
You may want to rate the tab now too:
select rating
Please do not post tabs as comments. Select "correction" instead!