Oops, an error
Loading. Please wait.
We have Chord Pro version of Somethings Gotta Give.
It's the closest thing you can get to the original song and it has interactive parts. Check out the tab »
×

Somethings Gotta Give bass

version 2
version 2

Whole song

  • This is based on what the bassist plays, just a lo... Show more

Interactive

215 views 1 this week
no commentswrite comment
1 2 3 4 5
3 more votes to show rating
add to favorites
×
Save as Personal and add changes to this tab that will be seen only by you. Learn more ›
×
You can save this tab as Personal to edit and correct it or add notes. All changes will be seen only by you. Learn more »
launch autoscroll
font size
0
reset
guitar tuner
edit
Autoscroll
slow
fast
+/-
esc
set tempo
stop
About this tab version
This is based on what the bassist plays, just a lower octave/position of the notes, and it's also a lot easier for beginners. Was this info helpful? Yes No
Not using a plectrum makes the bass sound lower pitched and rougher,
and using a plectrum makes the bass sound higher pitched and clearer.
I used the offical song on Spotify to write and play this bass tab, 
but the CD album track also works with this.

[Intro]

0:00

Rest

[Verse]

0:05

G|-------------------------|    |--------|
D|-------------------------|    |--------|
A|-------------------------|    |--------|
E|-5-5-5-5-5-5-0-0-0-0-0-0-| X3 |-7~--9~-|

G|-------------------------|    |--------|
D|-------------------------|    |--------|
A|-------------------------|    |--------|
E|-5-5-5-5-5-5-0-0-0-0-0-0-| X3 |-7~--9~-|

[Pre-chorus]

0:28

G|--------------------------------|
D|--------------------------------|
A|--------------------------------|
E|-5~--0~--5~--0~--5~--0~--9~--7~-|

[Chorus]

0:40

G|-------------------------------------------------------------------|
D|-------------------------------------------------------------------|
A|-------------------------------------------------------------------|
E|-5-5-5-5-0-0-0-0-7-7-7-7-4-4-4-4-5-5-5-5-0-0-0-0-7-7-7-7-2--2-4--4-|

G|-------------------------------------------------------------------|
D|-------------------------------------------------------------------|
A|-------------------------------------------------------------------|
E|-5-5-5-5-0-0-0-0-7-7-7-7-4-4-4-4-5-5-5-5-0-0-0-0-7-7-7-7-2--2-4--4-|

[Verse]

1:03

G|-------------------------|    |--------|
D|-------------------------|    |--------|
A|-------------------------|    |--------|
E|-5-5-5-5-5-5-0-0-0-0-0-0-| X3 |-7~--9~-|

G|-------------------------|
D|-------------------------|
A|-------------------------|
E|-5-----------0-0-0-0-0-0-|

G|-------------------------|    |--------|
D|-------------------------|    |--------|
A|-------------------------|    |--------|
E|-5-5-5-5-5-5-0-0-0-0-0-0-| X2 |-7~--9~-|

[Pre-chorus]

1:26

G|--------------------------------|
D|--------------------------------|
A|--------------------------------|
E|-5~--0~--5~--0~--5~--0~--9~--7~-|

[Chorus]

1:38

G|-------------------------------------------------------------------|
D|-------------------------------------------------------------------|
A|-------------------------------------------------------------------|
E|-5-5-5-5-0-0-0-0-7-7-7-7-4-4-4-4-5-5-5-5-0-0-0-0-7-7-7-7-2--2-4--4-|

G|-------------------------------------------------------------------|
D|-------------------------------------------------------------------|
A|-------------------------------------------------------------------|
E|-5-5-5-5-0-0-0-0-7-7-7-7-4-4-4-4-5-5-5-5-0-0-0-0-7-7-7-7-2--2-4--4-|

[Bridge]

2:01

G|-----------------------------------------------------------------------------------|
D|-----------------------------------------------------------------------------------|
A|-----------------------------------------------------------------------------------|
E|-4-4-4-4-4-4-4-4-2-2-2-2-2-2-2-2-7-7-7-7-7-7-7-7-0-0-0-0-0-0-0-0-4-4-4-4-4-4-4-4-2-|

[Pre-chorus]

2:18

Rest

[Chorus]

2:30

G|-------------------------------------------------------------------|
D|-------------------------------------------------------------------|
A|-------------------------------------------------------------------|
E|-5-5-5-5-0-0-0-0-7-7-7-7-4-4-4-4-5-5-5-5-0-0-0-0-7-7-7-7-2--2-4--4-|

[Pre-chorus]

2:42

G|--------------------------------|
D|--------------------------------|
A|--------------------------------|
E|-5~--0~--5~--0~--5~--0~--9~--7~-|

[Chorus]

2:53

G|-------------------------------------------------------------------|
D|-------------------------------------------------------------------|
A|-------------------------------------------------------------------|
E|-5-5-5-5-0-0-0-0-7-7-7-7-4-4-4-4-5-5-5-5-0-0-0-0-7-7-7-7-2--2-4--4-|

**********************************************************************

~ = Vibrato

            
            
Suggest correction
Creating personal tab
Creating personal tab
You can edit any tab online and save it as your Personal.

You can edit, replace or remove any tab part or add personal notes – all changes will be seen only by you.

Personal tabs can be accessed anytime from any device, even offline.
Learn more »
Give kudos to tab author, rate the tab!
1 2 3 4 5
comments
print report bad tab
guest
You may want to rate the tab now too:
select rating
Wanna post a correction for this tab? Suggest correction