Oops, an error
Loading. Please wait.

Somewhere In Neverland Bass Tab

version 1
version 1

Whole song

Interactive

9,612 views 24 this week
no commentswrite comment
1 2 3 4 5
accurate
x 8
add to favorites
launch autoscroll
font size
0
reset
guitar tuner
Autoscroll
slow
fast
+/-
esc
set tempo
stop
Help us to improve Ultimate-Guitar.com Take our survey!
×
Author
Difficulty
-------------------------------------------------------------------------------
                             All Time Low - Somewhere in Neverland
-------------------------------------------------------------------------------
Tabbed by: FrankBassCover

Tuning:Standard

Scheme :

Verse
(Pause)
Pre Chorus
Chorus x2
Verse

Verse x2
Pre Chorus
Chorus x2
interlude
last chorus
chorus
verse

Tab:

Verse
G|-------------------------------------------------------------------|
D|-------------------------------------------------------------------|
A|-6-6-6-6-6-6-------------------------------------------------------|
E|-------------3-4-6-6-6-6-6-6-6-6-6-8-8-8-8-8-8-1-3-4-4-4-4-4-4-4-4-|

G|-----------------------------------------------------|
D|-----------------------------------------------------|
A|-6-6-6-6-6-6-----------------------------------------|
E|-------------3-4-6-6-6-6-6-6-6-6-6-8-8-8-8-8-8-1-3-4-|

(Pause)

pre chorus ( 0:29 )
G|--------------------------------------------------------------------|
D|--------------------------------------------------------------------|
A|-/6-6-6-6-6-6-------------------------------------------------------|
E|--------------3-4-6-6-6-6-6-6-6-6-6-8-8-8-8-8-8-1-3-4-4-4-4-4-4-4-4-|

G|---------------------------------------------------------------|
D|---------------------------------------------------------------|
A|-6-6-6-6-6-6---------------------------------------------------|
E|-------------3-4-6-6-6-6-6-6-6-6-6-8-8-8-8-8-8-1-3-4------4----|

Chorus ( same of the verse )
G|-------------------------------------------------------------------|
D|-------------------------------------------------------------------|
A|-6-6-6-6-6-6-------------------------------------------------------|
E|-------------3-4-6-6-6-6-6-6-6-6-6-8-8-8-8-8-8-1-3-4-4-4-4-4-4-4-4-|

G|-----------------------------------------------------|
D|-----------------------------------------------------|
A|-6-6-6-6-6-6-----------------------------------------|
E|-------------3-4-6-6-6-6-6-6-6-6-6-8-8-8-8-8-8-1-3-4-|x2

Verse x1 

Verse x2
Pre chorus
Chorus x2

Interlude
G|----------------------------|
D|----------------------------|
A|----------------------------|
E|-4----10-8----5----10----8--|

G|----------------------------------------------------------------------------------|
D|----------------------------------------------------------------------------------|
A|----------------------------------------------------------------------------------|
E|-4-4-4-4-4-4-10-10-8-8-8-8-8-8-8-8-5-5-5-5-5-5-9-9-10-10-10-10-10-8-8-8-6---5-5-6-|

Last Chorus
G|-------------------------------------------------------------------|
D|-------------------------------------------------------------------|
A|-6-6-6-6-6-6-------------------------------------------------------|
E|-------------3-4-6-6-6-6-6-6-6-6-6-8-8-8-8-8-8-1-3-4-4-4-4-4-4-4-4-|

G|-----------------------------------------------------|
D|-----------------------------------------------------|
A|-------6-6-6-----------------------------------------|
E|-------------3-4-6-6-6-6-6-6-6-6-6-8-8-8-8-8-8-1-3-4-|
Chorus x1
Verse x1 

| /  slide up
| \  slide down
| h  hammer-on
| p  pull-off
| ~  vibrato
| +  harmonic
| x  Mute note
===============================================================================
Suggest correction
comments
print report bad tab
guest
You may want to rate the tab now too:
select rating
Please do not post tabs as comments. Select "correction" instead!