Oops, an error
Loading. Please wait.

Somewhere In Neverland Tab

version 1
version 1

Whole song

Interactive

39,946 views 39 this week
4 commentsread comments
1 2 3 4 5
accurate
x 13
add to favorites
launch autoscroll
font size
0
reset
how to read this tab
guitar tuner
Autoscroll
slow
fast
+/-
esc
set tempo
stop
Help us to improve Ultimate-Guitar.com Take our survey!
×
Author
Difficulty
novice
Somewhere in Neverland - All Time Low
Tabbed by Nieper

Standard Tuning

Guitar 1: Jack Barakat
Guitar 2: Alex Gaskarth

Tab Key:
x = muted string
/ = slide
* = palm muting

Intro X2

Guitar 1
e|-------------------------------|
B|-------------------------------|
G|--8-8-12-12/10-10-8-8-12-12-7--|
D|--x-x-x--x--x--x--x-x-x--x--x--|
A|--6-6-10-10/8--8--6-6-10-10-5--|
E|-------------------------------|

Guitar 2
e|-----------------------------------|
B|-----------------------------------|
G|--8-8-8-8-8-8-8-8------------------|
D|--8-8-8-8-8-8-8-8-8-8-8-8-8-8-8-8--|
A|--6-6-6-6-6-6-6-6-8-8-8-8-8-8-8-8--|
E|------------------6-6-6-6-6-6-6-6--|

Guitar 1
e|----------------------------------|
B|----------------------------------|
G|--8-8-12-12/10-10-8-8-12-12/13-12-|
D|--x-x-x--x--x--x--x-x-x--x--x--X--|
A|--6-6-10-10/8--8--6-6-10-10/11-10-|
E|----------------------------------|

Guitar 2
e|-------------------------------------------|
B|-------------------------------------------|
G|-------------------------------------------|
D|--10-10-10-10-10-10-10-10-6-6-6-6-6-6-6-6--|
A|--10-10-10-10-10-10-10-10-6-6-6-6-6-6-6-6--|
E|--8--8--8--8--8--8--8--8--4-4-4-4-4-4-4-4--|

Verse

Guitar 2
e|-----------------------------------------------------------|
B|-----------------------------------------------------------|
G|--8-8-8-8-8------------------------------------------------|
D|--8-8-8-8-8-8-8-8-8-8-8-8-8-10-10-10-10-10-6-6-6-6-6-6-6-6-|x4
A|--6-6-6-6-6-8-8-8-8-8-8-8-8-10-10-10-10-10-6-6-6-6-6-6-6-6-|
E|------------6-6-6-6-6-6-6-6-8--8--8--8--8--4-4-4-4-4-4-4-4-|
    * * * * * * * * * * * * * *  *  *  *  *  * * * * * * * *

Guitar 1 comes in after 2 times with a clean picked riff which I dont know 

(Any help would be appreciated!)

Guitar 2
e|------------------------------------------------x---x---x--|
B|------------------------------------------------x---x---x--|
G|------------------------------------------------x---x---x--|
D|--6---------------------6-----------------------x---x---x--|
A|--6---------------------6-----------------------x---x---x--|
E|--4---------------------4-----------------------x---x---x--|
       So here we go again____    Wishing We could start again

Chorus

Guitar 1+2
e|-----------------------------------------------------------|
B|-----------------------------------------------------------|
G|--8-8-8-8-8------------------------------------------------|
D|--8-8-8-8-8-8-8-8-8-8-8-8-8-10-10-10-10-10-6-6-6-6-6-6-6-6-|
A|--6-6-6-6-6-8-8-8-8-8-8-8-8-10-10-10-10-10-6-6-6-6-6-6-6-6-|
E|------------6-6-6-6-6-6-6-6-8--8--8--8--8--4-4-4-4-4-4-4-4-|

e|-------------------------------------------------|
B|-------------------------------------------------|
G|--8-8-8-8-8--------------------------------------|
D|--8-8-8-8-8-8-8-8-8-8-8-8-8-10-10-10-10-10-6-6-6-|
A|--6-6-6-6-6-8-8-8-8-8-8-8-8-10-10-10-10-10-6-6-6-|
E|------------6-6-6-6-6-6-6-6-8--8--8--8--8--4-4-4-|

Then Guitar 1 does a cool riff that again i don't know

Guitar 2
e|-----------------------------------------------------------|
B|-----------------------------------------------------------|
G|--8-8-8-8-8------------------------------------------------|
D|--8-8-8-8-8-8-8-8-8-8-8-8-8-10-10-10-10-10-6-6-6-6-6-6-6-6-|
A|--6-6-6-6-6-8-8-8-8-8-8-8-8-10-10-10-10-10-6-6-6-6-6-6-6-6-|
E|------------6-6-6-6-6-6-6-6-8--8--8--8--8--4-4-4-4-4-4-4-4-|

e|-------------------------------------------------|
B|-------------------------------------------------|
G|--8-8-8-8-8--------------------------------------|
D|--8-8-8-8-8-8-8-8-8-8-8-8-8-10-10-10-10-10-6-6-6-|
A|--6-6-6-6-6-8-8-8-8-8-8-8-8-10-10-10-10-10-6-6-6-|
E|------------6-6-6-6-6-6-6-6-8--8--8--8--8--4-4-4-|

Order of Song:
Intro x2
Verse
Chorus
Verse
Chorus
Bridge (same as verse except no guitar 2 until Alex starts singing again)
Chorus
Intro x2
Suggest correction
comments
print report bad tab
4 comments total. Showing first comments.
0 reply
FaBau16 21 wrote on October 8 2012, 08:15 pm

amazing!!! great job!

I think the end is

Guitar 1
e|----------------------------------|
B|----------------------------------|
G|--8-8-12-12/10-10-8-8-12-12/10-8-|
D|--x-x-x--x--x--x--x-x-x--x--x--X--|
A|--6-6-10-10/8--8--6-6-10-10/8--6--|
E|----------------------------------|

0 reply
alltimelow64 274 wrote on October 8 2012, 10:57 pm

the rhythm guitar isn't right, it walks up in the change between the first and second chords and again between the third and forth. also, alex normally plays lead when he's not singing, i'm not sure if you care or not

0 reply
alltimelow64 274 wrote on October 8 2012, 11:00 pm

also it's in drop D. watch this video, he's not playing the lead part 100% right, but he's got the rhythm line down
http://www.youtube.com/watch?v=muKAk71_3bc

guest
You may want to rate the tab now too:
select rating
Please do not post tabs as comments. Select "correction" instead!