Oops, an error
Loading. Please wait.

Stay Awake Tab

version 4
version 4

Acoustic

Whole song

Interactive

17,544 views 27 this week
no commentswrite comment
1 2 3 4 5
excellent!
x 13
add to favorites
launch autoscroll
font size
0
reset
how to read this tab
guitar tuner
Autoscroll
slow
fast
+/-
esc
set tempo
stop
Help us to improve Ultimate-Guitar.com Take our survey!
×
Author
Difficulty
Tuning
intermediate
D# G# C# F# A# D#
This song basically uses the same chords as Six feet Under the Stars Acoustic
Version, just a different order. Sorry the lyrics aren't lined up with the notes,
but you can probably figure it out. Please give any feedback on my arrangement,
and I'll make sure to remember it for any future songs.

Tuning:
Half Step Down

Key:
>: Strum the pattern from the song
}: palm slap the strings

Introduction:
--0>-}-----0>-}------------0>------------0>------------0>------------0>
--0>-}-----0>-}------------0>------------0>------------0>------------0>
--9>-}-----9>-}------------9>------------2>------------9>------------2>
--9>-}-----9>-}------------9>------------2>------------9>------------2>
--7>-}-----7>-}------------7>------------0>------------7>------------0>
--0>-}-----0>-}------------0>------------0>------------0>------------0>

Verse 1:
--0------------0-0------------0>------------0>------------0>
--0------------0-0------------0>------------0>------------0>
--9---9---9----9-9---9---9----9>------------6>------------2>
--9----9---9---9-9----9---9---9>------------6>------------2>
--7------------7-7------------7>------------4>------------0>
--0------------0-0------------0>------------0>------------0>
"Caught in a cold sweat stuck splitting hairs, and drinkin' to much, I'm on my way 
to striking out..."

Verse 2:
--0------------0-0------------0>------------0>------------0>
--0------------0-0------------0>------------0>------------0>
--9---9---9----9-9---9---9----9>------------6>------------2>
--9----9---9---9-9----9---9---9>------------6>------------2>
--7------------7-7------------7>------------4>------------0>
--0------------0-0------------0>------------0>------------0>
"Go to sleep with the pressure of everyone, watching and waiting, they're yours for the 
but I still have my doubts..."

Prechorus:
--0>------------0>
--0>------------0>
--4>------------2>
--4>------------2>
--2>------------0>
--0>------------0>
"Before you ask which way to go, remember where you've been..."

Chorus:
--0>------------0>------------0>------------0>
--0>------------0>------------0>------------0>
--9>------------2>------------9>------------2>
--9>------------2>------------9>------------2>
--7>------------0>------------7>------------0>
--0>------------0>------------0>------------0>
"Stay awake, get a grip and get out your safe, from the weight of the world just take, 
not gonna set things straight..."

--0>------------0>------------0>------------0>------------0>
--0>------------0>------------0>------------0>------------0>
--6>------------2>------------9>------------2>------------4>
--6>------------2>------------9>------------2>------------4>
--4>------------0>------------7>------------0>------------2>
--0>------------0>------------0>------------0>------------0>
"I'll be fine, even though I'm not always right, I can count on the sun to shine, 
takes a lifetime, but dreams only last for a night..."

Verse 3:
--0------------0-0------------0>------------0>------------0>
--0------------0-0------------0>------------0>------------0>
--9---9---9----9-9---9---9----9>------------6>------------2>
--9----9---9---9-9----9---9---9>------------6>------------2>
--7------------7-7------------7>------------4>------------0>
--0------------0-0------------0>------------0>------------0>
"Figure it out boy you're trippin', so pull yourself together or you'll wash up like the rest..."

Verse 4:
--0-0-}   0-0-0-}      ---0>------------0>
--0-0-}   0-0-0-}      ---0>------------0>
--9-9-}   9-9-9-} X7   ---6>------------2>
--9-9-}   9-9-9-}      ---6>------------2>
--7-7-}   7-7-7-}      ---4>------------0>
--0-0-}   0-0-0-}      ---0>------------0>
"Cuz this ship is sinkin', I'm thinkin' I'm done for, I'll watch as the sails disappear 
cuz I'm no captain yet..."

Prechorus:
--0------------0-0-0 0-}
--0------------0-0-0 0-}
--4------------4-4-4 2-}
--4------------4-4-4 2-}
--2------------2-2-2 0-}
--0------------0-0-0 0-}
"I said before you ask which way to go, remember where you've been..."

Chorus:
--0>------------0>------------0>------------0>
--0>------------0>------------0>------------0>
--9>------------2>------------9>------------2>
--9>------------2>------------9>------------2>
--7>------------0>------------7>------------0>
--0>------------0>------------0>------------0>
"Stay awake, get a grip and get out you're safe, from the weight of the world just take, 
not gonna set things straight..."

--0>----------0>----------0>----------0>------------0>
--0>----------0>----------0>----------0>------------0>
--6>----------2>----------9>----------2>------------4>
--6>----------2>----------9>----------2>------------4>
--4>----------0>----------7>----------0>------------2>
--0>----------0>----------0>----------0>------------0>
"I'll be fine, even though I'm not always right, I can count on the sun to shine, 
takes a lifetime, but dreams only last for a night..."

Bridge:
--0------------0------------0--0-0---|
--0------------0------------0--0-0---|
--9------------6------------2--2-2---|
--9------------6------------2--2-2---|
--7------------4------------0--0-0---|
--0------------0------------0--0-0---|
"Believe you me, I'll give them everything, I'd tell them anything, to show them everything..."

--0>------------0>------------0>------|
--0>------------0>------------0>------|
--9>------------6>------------2>------|
--9>------------6>------------2>------|
--7>------------4>------------0>------|
--0>------------0>------------0>------|
"Believe you me, I'll give them everything, I'd tell them anything, to show them everything..."

--0>------------0>------------0>
--0>------------0>------------0>
--9>------------6>------------2>
--9>------------6>------------2>   X2
--7>------------4>------------0>
--0>------------0>------------0>
"Cuz you ain't the only ones who wanna live it up, you ain't the only ones, you ain't 
only ones who want to live it up, you ain't the only ones..."

Prechorus:
--0>-}------------0>-}
--0>-}------------0>-}
--9>-}------------9>-}
--9>-}------------9>-}
--7>-}------------7>-}
--0>-}------------0>-}

Chorus:
--0>------------0>------------0>------------0>
--0>------------0>------------0>------------0>
--9>------------2>------------9>------------2>
--9>------------2>------------9>------------2>
--7>------------0>------------7>------------0>
--0>------------0>------------0>------------0>
"Stay awake, get a grip and get out you're safe, from the weight of the world just take, 
not gonna set things straight..."
                                                           (Let it ring)
--0>----------0>----------0>----------0>------------0>------------0-|
--0>----------0>----------0>----------0>------------0>------------0-|
--6>----------2>----------9>----------2>------------4>------------9-|
--6>----------2>----------9>----------2>------------4>------------9-|
--4>----------0>----------7>----------0>------------2>------------7-|
--0>----------0>----------0>----------0>------------0>------------0-|
"I'll be fine, even though I'm not always right, I can count on the sun to shine, 
takes a lifetime, but dreams only last for a night"
Suggest correction
What's this?
You can suggest a correction to this tab. Community and Mods will review your correction and vote to approve or reject it.
comments
print report bad tab
guest
You may want to rate the tab now too:
select rating
Please do not post tabs as comments. Select "correction" instead!