Oops, an error
Loading. Please wait.

Stay Awake Tab

version 1
version 1

Whole song

Interactive

28,934 views 1 this week
5 commentsread comments
1 2 3 4 5
x 9
add to favorites
launch autoscroll
font size
0
reset
how to read this tab
guitar tuner
Autoscroll
slow
fast
+/-
esc
set tempo
stop
Help us to improve Ultimate-Guitar.com Take our survey!
×
This is just the basic rythem guitar that everyone plays to. I had a few e-mails about 
but the lead takes too long to tab. If i feel like it, I'll do it later. Here it is. Just 
the bass


Intro
(until vocals)

E------------------|
B------------------|
G-333-----333------|
D-333-111-333-1111-|
A-111-111-111-1111-|
D-----111-----1111-|

"Caught in a cold sweat.."
E-----------------------------------|
B-----------------------------------|
G-------55555555555555--------------|
D-1~~1~~55555555555555-6666666666666|
A-1~~1~~33333333333333-6666666666666|
D-1~~1~~---------------6666666666666|

"Go to sleep with the pressures.."
E-----------------------------------|
B-----------------------------------|
G-------55555555555555--------------|
D-1~~1~~55555555555555-6666666666666|
A-1~~1~~33333333333333-6666666666666|
D-1~~1~~---------------6666666666666|

"Before you ask.."
E--------------------------|
B--------------------------|
G--------------------------|
D-888888888888-666666666666|
A-888888888888-666666666666|
D-888888888888-666666666666|

Chorus
"Stay Awake!"
E----------------------------------------------------------|
B----------------------------------------------------------|
G----------------------------------------------------------|
D-111111111111-66666666666666-1111111111111-66666666666666-|
A-111111111111-66666666666666-1111111111111-66666666666666-|
D-111111111111-66666666666666-1111111111111-66666666666666-|

"I'll be fine.."
E-------------------------------------------------------|
B-------------------------------------------------------|
G-555555555555------------------------------------------|
D-555555555555-6666666666666-1111111111111-111111111111-|
A-333333333333-6666666666666-1111111111111-111111111111-|
D--------------6666666666666-1111111111111-000000000000-|

"Figure it out boy your trippin.."
E-----------------------------------|
B-----------------------------------|
G-------55555555555555--------------|
D-1~~1~~55555555555555-6666666666666|
A-1~~1~~33333333333333-6666666666666|
D-1~~1~~---------------6666666666666|
"This ship is sinking.."
E-----------------------------------|
B-----------------------------------|
G-------55555555555555--------------|
D-1~~1~~55555555555555-6666666666666|
A-1~~1~~33333333333333-6666666666666|
D-1~~1~~---------------6666666666666|

"Before you ask.."
E------------------------|
B------------------------|
G------------------------|
D-888888888888-66666666~~|
A-888888888888-66666666~~|
D-888888888888-66666666~~|

"Stay Awake!"
E----------------------------------------------------------|
B----------------------------------------------------------|
G----------------------------------------------------------|
D-111111111111-66666666666666-1111111111111-66666666666666-|
A-111111111111-66666666666666-1111111111111-66666666666666-|
D-111111111111-66666666666666-1111111111111-66666666666666-|

"I'll be fine.."
E-------------------------------------------------------|
B-------------------------------------------------------|
G-555555555555------------------------------------------|
D-555555555555-6666666666666-1111111111111-111111111111-|
A-333333333333-6666666666666-1111111111111-111111111111-|
D--------------6666666666666-1111111111111-000000000000-|

"Believe you me.."
(First time)
E---------|
B---------|
G---------|
D-1~~~----|
A-1~~~----|
D-1~~~----|

"Believe you me.."
(Second time)
Palm Mute
E-----------------------------------------------------------|
B-----------------------------------------------------------|
G-----------------------5-5-5-5-5-5-5-5-5-------------------|
D-1-1-1-1-1-1-1-1-1-1-1-5-5-5-5-5-5-5-5-5-6-6-6-6-6-6-6-6-6-|
A-1-1-1-1-1-1-1-1-1-1-1-3-3-3-3-3-3-3-3-3-6-6-6-6-6-6-6-6-6-|
D-1-1-1-1-1-1-1-1-1-1-1-------------------6-6-6-6-6-6-6-6-6-|

"You ain't the only ones.."
E-----------------------------------------------|
B-----------------------------------------------|
G------------------55555555555555---------------|
D-1111111111111111-55555555555555-6666666666666-|
A-1111111111111111-33333333333333-6666666666666-|
D-1111111111111111----------------6666666666666-|

Intro
E------------------|
B------------------|
G-333-----333------|
D-333-111-333-1111-|
A-111-111-111-1111-|
D-----111-----1111-|

"Stay Awake!"
E----------------------------------------------------------|
B----------------------------------------------------------|
G----------------------------------------------------------|
D-111111111111-66666666666666-1111111111111-66666666666666-|
A-111111111111-66666666666666-1111111111111-66666666666666-|
D-111111111111-66666666666666-1111111111111-66666666666666-|

"I'll be fine.."
E-------------------------------------------------------|
B-------------------------------------------------------|
G-555555555555------------------------------------------|
D-555555555555-6666666666666-1111111111111-111111111111-|
A-333333333333-6666666666666-1111111111111-111111111111-|
D--------------6666666666666-1111111111111-000000000000-|

End on
E---|
B---|
G---|
D-1~|
A-1~|
D-1~|

Thats It! Jack said this is there easiest song so im guessing you should have no problem 
it. Any questions? e-mail me at alwaysfalling01@hotmail.com
Suggest correction
comments
print report bad tab
5 comments total. Showing first comments.
0 reply
jessicaalee 10 Oct 24, 2008 11:33 PM

wow. this sounds horrible. maybe it's my guitar?
is this for acoustic? i tuned it to standard.

0 reply
Couldxkareless 10 Dec 26, 2008 12:42 AM

this sounds fine. idk about the chorus tho. do u thnk u could tab the lead?

+1 reply
tragicflux 10 Jan 01, 2009 10:22 PM

it sounds bad because it's supposed to be drop D tuning lol

guest
You may want to rate the tab now too:
select rating
Wanna post a correction for this tab? Suggest correction