Oops, an error
Loading. Please wait.

Stella Live Tab

version 2
version 2

Whole song

Interactive

143 views 1 this week
no commentswrite comment
1 2 3 4 5
please rate
add to favorites
launch autoscroll
font size
0
reset
how to read this tab
guitar tuner
Tab Pro tools
  • play this tab
  • loop segment
  • change instrument
  • show fretboard
  • metronome
Autoscroll
slow
fast
+/-
esc
set tempo
stop
Contributor
Difficulty
Tuning
intermediate
C# G# C# F# A# D#
All Time Low - Stella Live
Tabbed by : Khalamity
Drop C#
Based on their Straight to DVD Performance

Format :

Main Riff
Verse
Chorus
Main Riff
Verse
Chorus
Bridge
Breakdown
Chorus

~~~~~~~~Main Riff~~~~~~~~

Lead
D#|--------------------------------------------|
A#|--------------------------------------------|
F#|--------------------------------------------|
C#|----\5-\7----\5-\7---\7-5-3---3-7-5---------|
G#|-\8~------\7~-----\5~------3~---------------|
C#|--------------------------------------------|
                                

Rhythm
D#|----------------------------------------------------|
A#|----------------------------------------------------|
F#|---------------2222222222--3333333333--5555555555---|
C#|--33333333333--2222222222--3333333333--5555555555---|
G#|--33333333333--0000000000--1111111111--3333333333---|
C#|--33333333333---------------------------------------|


~~~~~~~Verse~~~~~~~

Rhythm
D#|----------------------|------------------------||------------------------|
A#|----------------------|------------------------||------------------------|
F#|------------777777777-|-------------5555555555-||-------------5-5-5-5555-|
C#|-333333333--777777777-|-8888888888--5555555555-||-8-8-8-8888--5-5-5-5555-|
G#|-333333333--555555555-|-8888888888--3333333333-||-8-8-8-8888--3-3-3-3333-|
C#|-333333333------------|-8888888888-------------||-8-8-8-8888-------------|
    xxxxxxxxx  xxxxxxxxx   xxxxxxxxxx  xxxxxxxxxx
                           1st Time                  2nd Time 


~~~~~~~Chorus~~~~~~~

Lead
D#|------------|-----------|-----------|------------|------------|
A#|---6-5-6^-5-|--6-5-6^-5-|--6-5-6^-5-|---6-5-6^-5-|--\8-6-8-10-|
F#|-5----------|6----------|7----------|-5----------|------------|
C#|------------|-----------|-----------|------------|------------|
G#|------------|-----------|-----------|------------|------------|
C#|------------|-----------|-----------|------------|------------|
  2x            2x          2x          1x           1x

Rhythm
D#|--------------------------------------------------|
A#|--------------------------------------------------|
F#|---------------2222222222--3333333333--5555555555-|
C#|--33333333333--2222222222--3333333333--5555555555-|
G#|--33333333333--0000000000--1111111111--3333333333-|
C#|--33333333333-------------------------------------|

D#|-------------------------------------------|
A#|-------------------------------------------|
F#|---------------2222222222--7777777777--3~--|
C#|--33333333333--2222222222--7777777777--3~--|
G#|--33333333333--0000000000--5555555555--1~--|
C#|--33333333333------------------------------|


~~~~~~~Bridge~~~~~~~

Lead
D#|----------------------------------------------------------|
A#|----------------------------------------------------------|
F#|--14-14-14-14-14-14-14141414-12-12-12-12-12-12-12121212---|
C#|--x--x--x--x--x--x--x-x-x-x--x--x--x--x--x--x--x-x-x-x----|
G#|--12-12-12-12-12-12-12121212-10-10-10-10-10-10-10101010---|
C#|----------------------------------------------------~-----|

D#|---------------------|
A#|---------------------|
F#|--12~-55~-\14~-1010~-|
C#|--x-~-xx~-\x-~-x-x-~-|
G#|--10~-33~-\12~-8-8-~-|
C#|---------------------|

D#|----------------------------------------------------------|
A#|----------------------------------------------------------|
F#|--14-14-14-14-14-14-14141414-12-12-12-12-12-12-12121212---|
C#|--x--x--x--x--x--x--x-x-x-x--x--x--x--x--x--x--x-x-x-x----|
G#|--12-12-12-12-12-12-12121212-10-10-10-10-10-10-10101010---|
C#|----------------------------------------------------~-----|

D#|---------------|
A#|---------------|
F#|--12~-55~-\14~-|
C#|--x-~-xx~-\x-~-|
G#|--10~-33~-\12~-|
C#|---------------|



Rhythm
D#|----------------------------------------------------------|
A#|----------------------------------------------------------|
F#|--7-7-7-7-7-7-7777-5-5-5-5-5-5-5555------------5~-----5-6-|
C#|--7-7-7-7-7-7-7777-5-5-5-5-5-5-5555---8~--33~--5~-33~-5-6-|
G#|--5-5-5-5-5-5-5555-3-3-3-3-3-3-3333---8~--33~--3~-33~-3-4-|
C#|--------------------------------------8~--33~-----33~-----|

D#|--------------------------------------------------|
A#|--------------------------------------------------|
F#|--7-7-7-7-7-7-7777-5-5-5-5-5-5-5555------------5~-|
C#|--7-7-7-7-7-7-7777-5-5-5-5-5-5-5555---8~--33~--5~-|
G#|--5-5-5-5-5-5-5555-3-3-3-3-3-3-3333---8~--33~--3~-|
C#|--------------------------------------8~--33~-----|
                                  xxxx


~~~~~~~Breakdown~~~~~~~

Lead
D#|-----|
A#|-----|
F#|-10~-|
C#|-x-~-|
G#|-8-~-|
C#|-----|
       

Rhythm
D#|-----------------------|
A#|-----------------------|
F#|------2~--3~--5~-------|
C#|--3~--2~--3~--5~-/////-|
G#|--3~--0~--1~--3~-/////-|
C#|--3~-------------/////-|
                    Pickslide
comments
We did not receive enough feedback on this tab! Please rate:
print report bad tab
1 2 3 4 5
I want to post or [tab]
guest
You may want to rate the tab now too:
select rating
Please do not post tabs as comments. Select "correction" instead!