Oops, an error
Loading. Please wait.

Stella Tab

version 1
version 1

Whole song

Interactive

24,212 views 1 this week
5 commentsread comments
1 2 3 4 5
1 last vote to show rating
add to favorites
launch autoscroll
font size
0
reset
how to read this tab
guitar tuner
Autoscroll
slow
fast
+/-
esc
set tempo
stop
Help us to improve Ultimate-Guitar.com Take our survey!
×
Author
Tuning
D A D G B E
-------------------------------------------------------------------------------
                             Stella - All Time Low
-------------------------------------------------------------------------------
Tabbed by:Jp Jordan
Email:jpcarlow@hotmail.com

Tuning:Drop D
Intro
e|-----------------|-----------------|-----------------|-----------------|
B|-----------------|-----------------|-----------------|-----------------|
G|-----------------|-----------------|-7-7-7-7-7-7-7-7-|-5-5-5-5-5-5-5-5-|
D|-3-3-3-3-3-3-3-3-|-7-7-7-7-7-7-7-7-|-7-7-7-7-7-7-7-7-|-5-5-5-5-5-5-5-5-|
A|-3-3-3-3-3-3-3-3-|-7-7-7-7-7-7-7-7-|-5-5-5-5-5-5-5-5-|-3-3-3-3-3-3-3-3-|
D|-3-3-3-3-3-3-3-3-|-7-7-7-7-7-7-7-7-|-----------------|-----------------|

Verse
Muted-------------------------------------------------------------------|
e|-----------------|-----------------|-----------------|-----------------|
B|-----------------|-----------------|-----------------|-----------------|
G|-----------------|-7-7-7-7-7-7-7-7-|-----------------|-5-5-5-5-5-5-5-5-|
D|-3-3-3-3-3-3-3-3-|-7-7-7-7-7-7-7-7-|-8-8-8-8-8-8-8-8-|-5-5-5-5-5-5-5-5-|
A|-3-3-3-3-3-3-3-3-|-5-5-5-5-5-5-5-5-|-8-8-8-8-8-8-8-8-|-3-3-3-3-3-3-3-3-|
D|-3-3-3-3-3-3-3-3-|-----------------|-8-8-8-8-8-8-8-8-|-----------------|

Muted-----------------------------------------|
e|-----------------|-----------------|-----------------|-----------------|
B|-----------------|-----------------|-----------------|-----------------|
G|-----------------|-7-7-7-7-7-7-7-7-|-----------------|-5-5-5-5-5-5-5-5-|
D|-3-3-3-3-3-3-3-3-|-7-7-7-7-7-7-7-7-|-8-8-8-8-8-8-8-8-|-5-5-5-5-5-5-5-5-|
A|-3-3-3-3-3-3-3-3-|-5-5-5-5-5-5-5-5-|-8-8-8-8-8-8-8-8-|-3-3-3-3-3-3-3-3-|
D|-3-3-3-3-3-3-3-3-|-----------------|-8-8-8-8-8-8-8-8-|-----------------|

Chorus
e|-----------------|-----------------|-----------------|-----------------|
B|-----------------|-----------------|-----------------|-----------------|
G|-----------------|-----------------|-7-7-7-7-7-7-7-7-|---------5-5-5-5-|
D|-3-3-3-3-3-3-3-3-|-7-7-7-7-7-7-7-7-|-7-7-7-7-7-7-7-7-|-8-8-8-8-5-5-5-5-|
A|-3-3-3-3-3-3-3-3-|-7-7-7-7-7-7-7-7-|-5-5-5-5-5-5-5-5-|-8-8-8-8-3-3-3-3-|
D|-3-3-3-3-3-3-3-3-|-7-7-7-7-7-7-7-7-|-----------------|-8-8-8-8---------|

e|-----------------|-----------------|-----------------|-----------------|
B|-----------------|-----------------|-----------------|-----------------|
G|-----------------|-----------------|-7-7-7-7-7-7-7-7-|-----------------|
D|-3-3-3-3-3-3-3-3-|-7-7-7-7-7-7-7-7-|-7-7-7-7-7-7-7-7-|-8---------------|
A|-3-3-3-3-3-3-3-3-|-7-7-7-7-7-7-7-7-|-5-5-5-5-5-5-5-5-|-8---------------|
D|-3-3-3-3-3-3-3-3-|-7-7-7-7-7-7-7-7-|-----------------|-8---------------|

e|-----------------|-----------------|-----------------|-----------------|
B|-----------------|-----------------|-----------------|-----------------|
G|-----------------|-----------------|-7-7-7-7-7-7-7-7-|-5-5-5-5-5-5-5-5-|
D|-3-3-3-3-3-3-3-3-|-7-7-7-7-7-7-7-7-|-7-7-7-7-7-7-7-7-|-5-5-5-5-5-5-5-5-|
A|-3-3-3-3-3-3-3-3-|-7-7-7-7-7-7-7-7-|-5-5-5-5-5-5-5-5-|-3-3-3-3-3-3-3-3-|
D|-3-3-3-3-3-3-3-3-|-7-7-7-7-7-7-7-7-|-----------------|-----------------|

Verse2
Muted-------------------------------------------------------------------|
e|-----------------|-----------------|-----------------|-----------------|
B|-----------------|-----------------|-----------------|-----------------|
G|-----------------|-7-7-7-7-7-7-7-7-|-----------------|-5-5-5-5-5-5-5-5-|
D|-3-3-3-3-3-3-3-3-|-7-7-7-7-7-7-7-7-|-8-8-8-8-8-8-8-8-|-5-5-5-5-5-5-5-5-|
A|-3-3-3-3-3-3-3-3-|-5-5-5-5-5-5-5-5-|-8-8-8-8-8-8-8-8-|-3-3-3-3-3-3-3-3-|
D|-3-3-3-3-3-3-3-3-|-----------------|-8-8-8-8-8-8-8-8-|-----------------|

Muted------------------------|        ---------------|
e|-----------------|-----------------|-----------------|-----------------|
B|-----------------|-----------------|-----------------|-----------------|
G|-----------------|-7-7-7-7-7-------|-----------------|-5-5-5-5-5-5-5-5-|
D|-3-3-3-3-3-3-3-3-|-7-7-7-7-7-------|-8-8-8-8-8-8-8-8-|-5-5-5-5-5-5-5-5-|
A|-3-3-3-3-3-3-3-3-|-5-5-5-5-5-------|-8-8-8-8-8-8-8-8-|-3-3-3-3-3-3-3-3-|
D|-3-3-3-3-3-3-3-3-|-----------------|-8-8-8-8-8-8-8-8-|-----------------|

Chorus
e|-----------------|-----------------|-----------------|-----------------|
B|-----------------|-----------------|-----------------|-----------------|
G|-----------------|-----------------|-7-7-7-7-7-7-7-7-|---------5-5-5-5-|
D|-3-3-3-3-3-3-3-3-|-7-7-7-7-7-7-7-7-|-7-7-7-7-7-7-7-7-|-8-8-8-8-5-5-5-5-|
A|-3-3-3-3-3-3-3-3-|-7-7-7-7-7-7-7-7-|-5-5-5-5-5-5-5-5-|-8-8-8-8-3-3-3-3-|
D|-3-3-3-3-3-3-3-3-|-7-7-7-7-7-7-7-7-|-----------------|-8-8-8-8---------|

e|-----------------|-----------------|-----------------|-----------------|
B|-----------------|-----------------|-----------------|-----------------|
G|-----------------|-----------------|-7-7-7-7-7-7-7-7-|-----------------|
D|-3-3-3-3-3-3-3-3-|-7-7-7-7-7-7-7-7-|-7-7-7-7-7-7-7-7-|-8-8-8-8-8-8-8-8-|
A|-3-3-3-3-3-3-3-3-|-7-7-7-7-7-7-7-7-|-5-5-5-5-5-5-5-5-|-8-8-8-8-8-8-8-8-|
D|-3-3-3-3-3-3-3-3-|-7-7-7-7-7-7-7-7-|-----------------|-8-8-8-8-8-8-8-8-|

Bridge
e|-----------------|-----------------|-----------------|-----------------|
B|-----------------|-----------------|-----------------|-----------------|
G|-7-7-7-7-7-7-7-7-|-5-5-5-5-5-5-5-5-|-----------------|-5---------------|
D|-7-7-7-7-7-7-7-7-|-5-5-5-5-5-5-5-5-|-8-----3---------|-5-----3---------|
A|-5-5-5-5-5-5-5-5-|-3-3-3-3-3-3-3-3-|-8-----3---------|-3-----3-----3-4-|
D|-----------------|-----------------|-8-----3---------|-------3---------|

e|-----------------|-----------------|-----------------|-----------------|
B|-----------------|-----------------|-----------------|-----------------|
G|-7-7-7-7-7-7-7-7-|-5-5-5-5-5-5-5-5-|-----------------|-5-5-5-5-5-5-5-5-|
D|-7-7-7-7-7-7-7-7-|-5-5-5-5-5-5-5-5-|-8-----3---------|-5-5-5-5-5-5-5-5-|
A|-5-5-5-5-5-5-5-5-|-3-3-3-3-3-3-3-3-|-8-----3---------|-3-3-3-3-3-3-3-3-|
D|-----------------|-----------------|-8-----3---------|-----------------|

Chorus
e|-----------------|-----------------|-----------------|-----------------|
B|-----------------|-----------------|-----------------|-----------------|
G|-----------------|-----------------|-----------------|-----------------|
D|-3---------------|-----------------|-----------------|-----------------|
A|-3---------------|-----------------|-----------------|-----------------|
D|-3---------------|-----------------|-----------------|-----------------|

e|-----------------|-----------------|-----------------|-----------------|
B|-----------------|-----------------|-----------------|-----------------|
G|-----------------|-----------------|-7-7-7-7-7-7-7-7-|---------5-5-5-5-|
D|-3-3-3-3-3-3-3-3-|-7-7-7-7-7-7-7-7-|-7-7-7-7-7-7-7-7-|-8-8-8-8-5-5-5-5-|
A|-3-3-3-3-3-3-3-3-|-7-7-7-7-7-7-7-7-|-5-5-5-5-5-5-5-5-|-8-8-8-8-3-3-3-3-|
D|-3-3-3-3-3-3-3-3-|-7-7-7-7-7-7-7-7-|-----------------|-8-8-8-8---------|

e|-----------------|-----------------|-----------------|-----------------|
B|-----------------|-----------------|-----------------|-----------------|
G|-----------------|-----------------|-7-7-7-7-7-7-7-7-|-----------------|
D|-3-3-3-3-3-3-3-3-|-7-7-7-7-----7---|-7-7-7-7-7-7-7-7-|-8-8-8-8-8-8-8-8-|
A|-3-3-3-3-3-3-3-3-|-7-7-7-7-----7---|-5-5-5-5-5-5-5-5-|-8-8-8-8-8-8-8-8-|
D|-3-3-3-3-3-3-3-3-|-7-7-7-7-----7---|-----------------|-8-8-8-8-8-8-8-8-|

e|-----------------|-----------------|-----------------|-----------------|
B|-----------------|-----------------|-----------------|-----------------|
G|-----------------|-----------------|-7-7-7-7-7-7-7-7-|---------5-5-5-5-|
D|-3-3-3-3-3-3-3-3-|-7-7-7-7-7-7-7-7-|-7-7-7-7-7-7-7-7-|-8-8-8-8-5-5-5-5-|
A|-3-3-3-3-3-3-3-3-|-7-7-7-7-7-7-7-7-|-5-5-5-5-5-5-5-5-|-8-8-8-8-3-3-3-3-|
D|-3-3-3-3-3-3-3-3-|-7-7-7-7-7-7-7-7-|-----------------|-8-8-8-8---------|

e|-----------------|-----------------|-----------------|-----------------|
B|-----------------|-----------------|-----------------|-----------------|
G|-----------------|-----------------|-7-7-7-7-7-7-7-7-|-----------------|
D|-3-3-3-3-3-3-3-3-|-7-7-7-7-7-7-7-7-|-7-7-7-7-7-7-7-7-|-8-8-8-8-8-8-8-8-|
A|-3-3-3-3-3-3-3-3-|-7-7-7-7-7-7-7-7-|-5-5-5-5-5-5-5-5-|-8-8-8-8-8-8-8-8-|
D|-3-3-3-3-3-3-3-3-|-7-7-7-7-7-7-7-7-|-----------------|-8-8-8-8-8-8-8-8-|
Suggest correction
Give kudos to tab author, rate the tab!
1 2 3 4 5
comments
print report bad tab
5 comments total. Showing first comments.
0 reply
apwhitelaw 20 Aug 12, 2009 01:58 AM

Great tab! But would you mind tabbing the first guitar? That was what I was hoping to find.

0 reply
guitar-guy01 799 Aug 12, 2009 08:11 AM

will get to work on it now

0 reply
Schmitzerlie 16 Aug 13, 2009 01:34 PM

This tab blows. Tab the whole thing or don't tab it at a you tool!!!

Hahahaha i'm totally kidding. These chords are all correct... But I agree with the first guy in that it would be nice to have all the little background riffs and things like that. Keep it up!
All Time Low is the best!!!!!!!!!!!!

guest
You may want to rate the tab now too:
select rating
Wanna post a correction for this tab? Suggest correction