Oops, an error
Loading. Please wait.

Stella Tab

version 2
version 2

Whole song

Interactive

55,128 views 48 this week
13 commentsread comments
1 2 3 4 5
excellent!
x 28
add to favorites
launch autoscroll
font size
0
reset
how to read this tab
guitar tuner
Autoscroll
slow
fast
+/-
esc
set tempo
stop
Help us to improve Ultimate-Guitar.com Take our survey!
×
Author
Difficulty
Tuning
novice
D A D G B E
All Time Low - Stella
Nothing Personal
Drop D


The other tab wasnt quite right, so i thought i post how i played it. Comment and Rate. ;]





Intro Lead
e|-----------------------------1/5-3~----------------------------------------|
B|----/5~6~----/5~6~---6~5~-1~-----------------------------------------------|
G|--5~-------6~------7~------------------------------------------------------|
D|---------------------------------------------------------------------------|
A|---------------------------------------------------------------------------|
D|---------------------------------------------------------------------------|
  *Add Vibrato on notes when needed*

Intro Rhythm
e|---------------------------------------------------------------------------|
B|---------------------------------------------------------------------------|
G|---------------2222222222--3333333333--5555555555--------------------------|
D|--33333333333--2222222222--3333333333--5555555555--------------------------|
A|--33333333333--0000000000--1111111111--3333333333--------------------------|
D|--33333333333--------------------------------------------------------------|


Verse 1
e|---------------------------------------------------------------------------|
B|---------------------------------------------------------------------------|
G|-------------777777777--------------5555555555-----------------------------|
D|--333333333--777777777--8888888888--5555555555-----------------------------|
A|--333333333--555555555--8888888888--3333333333-----------------------------|
D|--333333333-------------8888888888-----------------------------------------|
PM  .........  .........  ..........  ..........

e|---------------------------------------------------------------------------| Theres an opional
B|---------------------------------------------------------------------------| pickslide after the 
G|-------------777777777--------------5555555555-----------------------------| verse.
D|--333333333--777777777--8888888888--5555555555-----------------------------|
A|--333333333--555555555--8888888888--3333333333-----------------------------|
D|--333333333-------------8888888888-----------------------------------------|
PM  .........  .........  .....

Chorus
e|---------------------------------------------------------------------------|
B|---------------------------------------------------------------------------|
G|---------------2222222222--3333333333--5555555555--------------------------|
D|--33333333333--2222222222--3333333333--5555555555--------------------------|
A|--33333333333--0000000000--1111111111--3333333333--------------------------|
D|--33333333333--------------------------------------------------------------|

e|---------------------------------------------------------------------------|
B|---------------------------------------------------------------------------|
G|---------------2222222222--7777777777--3~----------------------------------|
D|--33333333333--2222222222--7777777777--3~----------------------------------|
A|--33333333333--0000000000--5555555555--1~----------------------------------|
D|--33333333333--------------------------------------------------------------|

Lead interlude thingy
e|-----------------------------1/5-3~----------------------------------------|
B|----/4~5~----/4~5~---5~4~-1~-----------------------------------------------|
G|--5~-------6~------7~------------------------------------------------------|
D|---------------------------------------------------------------------------|
A|---------------------------------------------------------------------------|
D|---------------------------------------------------------------------------|
  *Add Vibrato on notes when needed*

Verse 2
e|---------------------------------------------------------------------------|
B|---------------------------------------------------------------------------|
G|--------------77777777777--------------5555555555--------------------------|
D|--3333333333--77777777777--8888888888--5555555555--------------------------|
A|--3333333333--55555555555--8888888888--3333333333--------------------------|
D|--3333333333---------------8888888888--------------------------------------|
PM  ..........  ...........  ..........  ..........

e|---------------------------------------------------------------------------|
B|---------------------------------------------------------------------------|
G|-------------7777--------------5555555555----------------------------------|
D|--333333333--7777--8888888888--5555555555----------------------------------|
A|--333333333--5555--8888888888--3333333333----------------------------------|
D|--333333333--------8888888888----------------------------------------------|
PM  .........  ....  .....

Chorus
e|---------------------------------------------------------------------------|
B|---------------------------------------------------------------------------|
G|---------------2222222222--3333333333--5555555555--------------------------|
D|--33333333333--2222222222--3333333333--5555555555--------------------------|
A|--33333333333--0000000000--1111111111--3333333333--------------------------|
D|--33333333333--------------------------------------------------------------|

e|---------------------------------------------------------------------------|
B|---------------------------------------------------------------------------|
G|---------------2222222222--7777777777--33333333333-------------------------|
D|--33333333333--2222222222--7777777777--33333333333-------------------------|
A|--33333333333--0000000000--5555555555--11111111111-------------------------|
D|--33333333333--------------------------------------------------------------|

Bridge
e|---------------------------------------------------------------------------|
B|---------------------------------------------------------------------------|
G|--77777777777--5555555555------------5~--------77777777777--5555555555-----|
D|--77777777777--5555555555---8~---3~--5~--3~----77777777777--5555555555-----|
A|--55555555555--3333333333---8~---3~--3~--3~----55555555555--3333333333-----|
D|----------------------------8~---3~------3~--------------------------------|
PM                                                                  ....

e|---------------------------------------------------------------------------|
B|---------------------------------------------------------------------------|
G|--7777777777-----------5555555555------------------------------------------|
D|--7777777777---8~--3~--5555555555----3~------------------------------------|
A|--5555555555---8~--3~--3333333333----3~------------------------------------|
D|---------------8~--3~----------------3~------------------------------------|

Chorus
e|---------------------------------------------------------------------------|
B|---------------------------------------------------------------------------|
G|---------------2222222222--3333333333--5555555555--------------------------|
D|--33333333333--2222222222--3333333333--5555555555--------------------------|
A|--33333333333--0000000000--1111111111--3333333333--------------------------|
D|--33333333333--------------------------------------------------------------|

e|---------------------------------------------------------------------------|
B|---------------------------------------------------------------------------| Play this 
G|---------------2222222222--7777777777--33333333333-------------------------| Till it
D|--33333333333--2222222222--7777777777--33333333333-------------------------| fades out.
A|--33333333333--0000000000--5555555555--11111111111-------------------------|
D|--33333333333--------------------------------------------------------------|


Well thats it, Nothing Personal is a pretty sweet album pick it up if you dont have i
Suggest correction
comments
print report bad tab
13 comments total. Showing first comments.
+1 reply
cobra_disco 57 wrote on August 23 2009, 03:02 pm

lead intro doesnt sound right to me, but other than that its perfect!

0 reply
apwhitelaw 20 wrote on August 26 2009, 09:27 pm

Yeah same here, the lead intro doesn't sound right. I see how it goes with the song but something about it just isn't right. But everything else is perfect.

0 reply
JessicaGonzo 211 wrote on August 29 2009, 10:53 am

damn i worte the tab wrong.... i just updated it. i play it in single notes, but you can try playing it in octaves because im pretty sure they use octaves live. but to see how i play it you can watch this vid

http://www.youtube.com/watch?v=JMl3qaxpy74

guest
You may want to rate the tab now too:
select rating
Wanna post a correction for this tab? Suggest correction