Oops, an error
Loading. Please wait.

Stella Tab

version 3
version 3

Whole song

Interactive

7,835 views 1 this week
no commentswrite comment
1 2 3 4 5
please rate
add to favorites
launch autoscroll
font size
0
reset
how to read this tab
guitar tuner
Tab Pro tools
  • play this tab
  • loop segment
  • change instrument
  • show fretboard
  • metronome
×
Best way to learn
"Stella"
Autoscroll
slow
fast
+/-
esc
set tempo
stop
Contributor
Difficulty
Tuning
intermediate
D A D G B E
-------------------------------------------------------------------------------
                             Stella - All Time Low
-------------------------------------------------------------------------------
Tabbed by:ATLNP
Email:

Tuning:Drop D[DADGBe]
Intro: Lead
e|-----------------------------------------------------------------------------|
B|-----------------------------------------------------------------------------|
G|-5-9-10-6-9-10-7-10-9-5-14-12------------------------------------------------|
D|-x-x--x-x-x--x-x--x-x-x--x--x------------------------------------------------|
A|-3-7--8-4-7--8-5--8-7-3-12-10------------------------------------------------|
D|-----------------------------------------------------------------------------|
Intro: Rythm
e|---------------------------------------------------------------------------|
B|---------------------------------------------------------------------------|
G|---------------------------------------------------------------------------|
D|-33333333-77777777-88888888-55555555---------------------------------------|
A|-33333333-55555555-88888888-33333333---------------------------------------|
D|-33333333----------88888888------------------------------------------------|
Verse: Both Guitars
e|---------------------------------------------------------------------------|
B|---------------------------------------------------------------------------|
G|---------------------------------------------------------------------------|
D|-33333333-77777777-88888888-55555555---------------------------------------|
A|-33333333-55555555-88888888-33333333---------------------------------------|
D|-33333333----------88888888------------------------------------------------|
              x2
Chorus: Both Guitars
e|---------------------------------------------------------------------------|
B|---------------------------------------------------------------------------|
G|----------22222222-33333333-55555555------------22222222-55555555-3--------|
D|-33333333-22222222-33333333-55555555---33333333-22222222-55555555-3--------|
A|-33333333----------11111111-33333333---33333333----------77777777-1--------|
D|-33333333------------------------------33333333----------------------------|

e|---------------------------------------------------------------------------|
B|---------------------------------------------------------------------------|
G|-INTRO:BOTH GUITARS--------------------------------------------------------|
D|---------------------------------------------------------------------------|
A|---------------------------------------------------------------------------|
D|---------------------------------------------------------------------------|

e|---------------------------------------------------------------------------|
B|---------------------------------------------------------------------------|
G|-VERSE:BOTH GUITARS--------------------------------------------------------|
D|---------------------------------------------------------------------------|
A|---------------------------------------------------------------------------|
D|---------------------------------------------------------------------------|

e|---------------------------------------------------------------------------|
B|---------------------------------------------------------------------------|
G|--Chorus-------------------------------------------------------------------|
D|---------------------------------------------------------------------------|
A|---------------------------------------------------------------------------|
D|---------------------------------------------------------------------------|
Bridge: Both Guitars
e|---------------------------------------------------------------------------|
B|---------------------------------------------------------------------------|
G|---------------------------------------------------------------------------|
D|-77777777-55555555-8-3-5-3-77777777-55555555-8-3-5-3-----------------------|
A|-55555555-33333333-8-3-3-3-55555555-33333333-8-3-3-3-----------------------|
D|-------------------8-3---3---------------***-8-3---3-----------------------|
Chorus: Just Lead Guitar
e|---------------------------------------------------------------------------|
B|---------x-----------------------------------------------------------------|
G|---2-3-3-x-----------------------------------------------------------------|
D|-3-2-3-3-x-----------------------------------------------------------------|
A|-3---1-3-x-----------------------------------------------------------------|
D|-3-------x-----------------------------------------------------------------|

e|------------------------------------------------------------------------------|
B|------------------------------------------------------------------------------|
G|--Chorus: Original------------------------------------------------------------|
D|--------------------3---------------------------------------------------------|
A|--------------------3---------------------------------------------------------|
D|--------------------3---------------------------------------------------------|
| /   slide up
| \   slide down
| h   hammer-on
| p   pull-off
| ~   vibrato
| +   harmonic
| x   Mute note
| b   Bend
| pb  Pre-bend
| br  Bend release
| pbr Pre-bend release
| brb Bend release bend

************************************
comments
We did not receive enough feedback on this tab! Please rate:
print report bad tab
1 2 3 4 5
I want to post or [tab]
guest
You may want to rate the tab now too:
select rating
Please do not post tabs as comments. Select "correction" instead!