Oops, an error
Loading. Please wait.

The Beach Tab

version 2
version 2

Whole song

Interactive

16,279 views 12 this week
11 commentsread comments
1 2 3 4 5
excellent!
x 9
add to favorites
launch autoscroll
font size
0
reset
how to read this tab
guitar tuner
Autoscroll
slow
fast
+/-
esc
set tempo
stop
Help us to improve Ultimate-Guitar.com Take our survey!
×
Author
The Beach
All Time Low
So Wrong, Its Right

Ok, since Im not good with powertabs, I am starting to make text tabs 
that sorta look like them exported to ASCII. Let me know if you 
like the tabs better the normal way. Personally, 
I think this way is more 
complete. Anyways, Im 99 percent sure this is perfect. Its in C 
so you can play around with open chords if you want (C G Em Am F). 
Guitars that play simultaneously are bracketed together. Hope you guys and girls like it.

Gtr I (E A D G B E) – Rhythm Guitar (Alex)
Gtr II (E A D G B E) – Lead Guitar (Jack)
Gtr III (E A D G B E) – Lead Guitar Overdub

Intro
Q=167
  Gtr I
  Q  E E Q  E E   Q  E E Q  E E   Q  E E Q  E E   Q  E E Q  E E
|---------------|---------------|---------------|---------------|
|---------------|---------------|---------------|---------------|
|-------------5-|-5-------------|-------------5-|-5-------------|
|-3----3-3----5-|-5----5-5----3-|-3----3-3----5-|-5----5-5----3-|
|-3----3-3----3-|-3----5-5----3-|-3----3-3----3-|-3----5-5----3-|
|-1----1-1------|------3-3----1-|-1----1-1------|------3-3----1-|
| Gtr II
| W               W               W               H      Q  Q
|---------------|---------------|---------------|---------------|
|---------------|---------------|---------------|---------------|
|---------------|---------------|---------------|-----------12\=|
|---------------|---------------|---------------|------------x\=|
|---------------|---------------|---------------|-----------10\=|
|---------------|---------------|---------------|---------------|


  Q   E E Q   E E   Q   E E Q   E E   Q   E E Q   E E   Q   E E Q   E E
|-----------------|-----------------|-----------------|-----------------||
|-----------------|-----------------|-----------------|-----------------||
|---------------5-|-5---------------|---------------5-|-5---------------||
|-3-----3-3-----5-|-5-----5-5-----3-|-3-----3-3-----5-|-5-----5-5-----3-||
|-3-----3-3-----3-|-3-----5-5-----3-|-3-----3-3-----3-|-3-----5-5-----3-||
|-1-----1-1-------|-------3-3-----1-|-1-----1-1-------|-------3-3-----1-||
|
|-----------------|-----------------|-----------------|-----------------||
|-----------------|-----------------|-----------------|-----------------||
|=5-----5-5-----7-|-7-----5-5-----7-|-9-----9-9----10-|-10----9-9-----7-||
|=x-----x-x-----x-|-x-----x-x-----x-|-x-----x-x-----x-|-x-----x-x-----x-||
|=3-----3-3-----5-|-5-----3-3-----5-|-7-----7-7-----8-|-8-----7-7-----5-||
|-----------------|-----------------|-----------------|-----------------||
|
| E E E E E E E E   E E E E E E E E   E E E E E E E E   E E E E E E E E
|-----------------|-----------------|-----------------|-----------------||
|-8-----8-8-----8-|-8-----8-8-----8-|-8-----8-8-----8-|-8-----8-8-----8-||
|---5-5-----5-5---|---5-5-----5-5---|---5-5-----5-5---|---5-5-----5-5---||
|-----------------|-----------------|-----------------|-----------------||
|-----------------|-----------------|-----------------|-----------------||
|-----------------|-----------------|-----------------|-----------------||

Verse Part One
  Q   E E Q   Q     H    Q   Q
|-----------------|-------------|
|-----------------|-------------|
|-----------------|------5------|
|-3-----3-3-------|------5---5--|
|-3-----3-3-------|------3---5--|
|-1-----1-1-------|----------3--|  
|                          
|-----------------|-------------|
|-----------------|-------------|
|-5-----5-5\------|-------------|
|-x-----x-x\------|-------------|
|-3-----3-3\------|-------------|
|-----------------|-------------|

  Q   E E Q   Q     H    Q   Q
|----------------|-------------|
|----------------|-------------|
|----------------|------2------|
|-3-----3-3------|------2---5--|
|-3-----3-3------|------0---5--|
|-1-----1-1------|----------3--|


  Q   E E Q   Q     H    Q   Q
|----------------|-------------|
|----------------|-------------|
|----------------|------5------|
|-3-----3-3------|------5---5--|
|-3-----3-3------|------3---5--|
|-1-----1-1------|----------3--|


  E E E E E E E E   E E E E E E E E
|-----------------|-----------------||
|-----------------|-----------------||
|-------------2-2-|-2---------------||
|-3-3-3-5-5-5-2-2-|-2-2-2-2-3-3-5-5-||
|-3-3-3-5-5-5-0-0-|-0-2-2-2-3-3-5-5-||
|-1-1-1-3-3-3-----|---0-0-0-1-1-3-3-||


Verse Part Two
  Q   E E Q   Q    H       Q   Q
|----------------|---------------|
|----------------|---------------|
|----------------|---------5-----|
|-3-----3-3------|---------5---5-|
|-3-----3-3------|---------3---5-|
|-1-----1-1------|-------------3-|  
|
|Gtr II
| q   q   q   q    q   q   Q   Q
|----------------|---------------|
|----------------|---------------|
|-12--12--12--12-|-12--12--9--10-|
|-x---x---x---x--|-x---x---x--10-|
|-10--10--10--10-|-10--10--7---8-|
|----------------|---------------|


  Q   E E Q   Q    H       Q   Q
|----------------|---------------|
|----------------|---------------|
|----------------|---------2-----|
|-3-----3-3------|---------2---5-|
|-3-----3-3------|---------0---5-|
|-1-----1-1------|-------------3-|
|
| q   q   q   q    Q   Q   Q   Q
|----------------|---------------|
|----------------|---------------|
|-12--12--12--12-|-12--14--12--9-|
|-x---x---x---x--|-x---x---x---x-|
|-10--10--10--10-|-10--12--10--7-|
|----------------|---------------|


  Q   E E Q   Q    H       Q   Q
|----------------|---------------|
|----------------|---------------|
|----------------|---------5-----|
|-3-----3-3------|---------5---5-|
|-3-----3-3------|---------3---5-|
|-1-----1-1------|-------------3-|  
|
| q   q   q   q    q   q   Q   Q
|----------------|---------------|
|----------------|---------------|
|-12--12--12--12-|-12--12--9--10-|
|-x---x---x---x--|-x---x---x---x-|
|-10--10--10--10-|-10--10--7---8-|
|----------------|---------------|


  E E E E E E E E   E E E E E E E E
|-----------------|-----------------||
|-----------------|-----------------||
|-------------2-2-|-2---------------||
|-3-3-3-5-5-5-2-2-|-2-2-2-2-3-3-5-5-||
|-3-3-3-5-5-5-0-0-|-0-2-2-2-3-3-5-5-||
|-1-1-1-3-3-3-----|---0-0-0-1-1-3-3-||
|
| W                +W
|-----------------|-----------------||
|-----------------|-----------------||
|-12--------------|(12)-------------||
|-x---------------|(x-)-------------||
|-10--------------|(10)-------------||
|-----------------|-----------------||


Chorus
    Q    E E Q    E   Q    E E Q    E   Q    E E Q    E
||------------------|-----------------|-----------------|
||o-----------------|-----------------|-----------------|
||--5------5-5----5-|-5------5-5------|-----------------|
||--5------5-5----5-|-5------5-5----5-|-5------5-5----5-|
||o-3------3-3----3-|-3------3-3----5-|-5------5-5----5-|
||------------------|---------------3-|-3------3-3----3-|
|
||------------------|-----------------|-----------------|
||o-----------------|-----------------|-----------------|
||--12-----5-5----5-|-5------7-7----12|-12-----9-9----7-|
||--x------x-x----x-|-x------x-x----x-|-x------x-x----x-|
||o-10-----3-3----3-|-3------5-5----10|-10-----7-7----5-|
||------------------|-----------------|-----------------|
|
|   E E E E E E E E   E E E E E E E E   E E E E E E E E
||------------------|-----------------|-----------------|
||o-15--15--13--13--|-12--12--13--15--|-13--13--12--12--|
||----12--12--12--12|---12--12--12--12|---12--12--12--12|
||------------------|-----------------|-----------------|
||o-----------------|-----------------|-----------------|
||------------------|-----------------|-----------------|

  Q    E E Q    E   Q    E E Q    E   Q    E E Q    E
|-----------------|-----------------|-----------------|
|-----------------|-----------------|-----------------|
|---------------2-|-2------2-2----2-|-2------2-2----2-|
|-5------5-5----2-|-2------2-2----2-|-2------2-2----2-|
|-5------5-5----0-|-0------0-0----0-|-0------0-0----0-|
|-3------3-3------|-----------------|-----------------|
|
|-----------------|-----------------|-----------------|
|-----------------|-----------------|-----------------|
|-7------9-9---12-|-12-----9-9----7-|-7------9-9----9-|
|-x------x-x----x-|-x------x-x----x-|-x------x-x----x-|
|-5------7-7---10-|-10-----7-7----5-|-5------7-7----7-|
|-----------------|-----------------|-----------------|
|
| E E E E E E E E   E E E E E E E E   E E E E E E E E
|-----------------|-----------------|-----------------|
|-12--12--13--15--|-13--13--12--12--|-12--12--13--15--|
|---12--12--12--12|---12--12--12--12|---12--12--12--12|
|-----------------|-----------------|-----------------|
|-----------------|-----------------|-----------------|
|-----------------|-----------------|-----------------|

  E E E E E E E E   E E E E E E E E  
|-----------------|------------------||
|-----------------|-----------------o||
|-----------------|------------------||
|-3-3-3-3-3-3-5-5-|-5-5-5-5-5-5-5-5--||
|-3-3-3-3-3-3-5-5-|-5-5-5-5-5-5-5-5-o||
|-1-1-1-1-1-1-3-3-|-3-3-3-3-3-3-3-3--||
|
|-----------------|------------------||
|-----------------|-----------------o||
|-5-5-5-5-5-5-7-7-|-7-7-7-7-4-4-4-4--||
|-x-x-x-x-x-x-x-x-|-x-x-x-x-x-x-x-x--||
|-3-3-3-3-3-3-5-5-|-5-5-5-5-2-2-2-2-o||
|-----------------|------------------||
|
|-----------------|------------------||
|-13--13--13--12--|-12--12--12--12--o||
|---12--12--12--12|---12--12--12--12-||
|-----------------|------------------||
|-----------------|-----------------o||
|-----------------|------------------||


Post Chorus
  E E E E E E E E   E E E E E E E E   E E E E E E E E
|-----------------|-----------------|-----------------|
|-----------------|-----------------|-----------------|
|-----------------|---2-2-2-2-2-----|-------------5-5-|
|-3-3-3-5-5-5-2-2-|-2-2-2-2-2-2-5-5-|-3-3-3-5-5-5-x-x-|
|-3-3-3-5-5-5-2-2-|-2-0-0-0-0-0-5-5-|-3-3-3-5-5-5-3-3-|
|-1-1-1-3-3-3-0-0-|-0-----------3-3-|-1-1-1-3-3-3-----|
| Gtr II
| W                +W                +H.          E E
|-----------------|-----------------|-----------------|
|-----------------|-----------------|-----------------|
|-5---------------|(5)--------------|(5)----------5-5-|
|-x---------------|(x)--------------|(x)----------x-x-|
|-3---------------|(3)--------------|(3)----------3-3-|
|-----------------|-----------------|-----------------|

Gtrs I & II
  E E E E E E E E
|-----------------||
|-----------------||
|-5-5-5-5-5-5-5-5-||
|-x-x-x-x-x-x-x-x-||
|-3-3-3-3-3-3-3-3-||
|-----------------||

(Repeat Verse Part One [Gtr I Only])
(Repeat Verse Part Two [Gtrs I & II])
(Repeat Chorus w/ Repeat Sign)

Bridge (Measures have been condensed; Note Durations are the same)
 
 Gtr I
  W          +W            W          +W
|-----------|------------|-----------|------------|
|-1---------|(1)---------|-----------|------------|
|-2---------|(2)---------|-4---------|(4)---------|
|-2---------|(2)---------|-5---------|(5)---------|
|-0---------|(0)---------|-5---------|(5)---------|
|-----------|------------|-3---------|(3)---------|
|Gtr II
| EEEEEEE E   EEEEE E EE   EEEEEEE E   EEEEE E EE
|-00--00----|---00----00-|-----------|------------|
|---88------|-88---------|---88------|-88---------|
|-----------|------------|-77--77----|---77----77-|
|-------1010|-----1010---|-------1010|-----1010---|
|-----------|------------|-----------|------------|
|-----------|------------|-----------|------------|


  W          +W            W          +W
|-----------|------------|-----------|------------|
|-----------|------------|-----------|------------| 
|-----------|------------|-----------|------------| 
|-2---------|(2)---------|-3---------|(3)---------|
|-3---------|(3)---------|-3---------|(3)---------|
|-0---------|(0)---------|-1---------|(1)---------|
|
| EEEEEEE E   EEEEE E EE   EEEEEEE E   EEEEE E EE
|-00--00----|---00----00-|-----------|------------|
|---88------|-88---------|---88------|-88---------|
|-----------|------------|-77--77----|---77----77-|
|-------1010|-----1010---|-------1010|-----1010---|
|-----------|------------|-----------|------------|
|-----------|------------|-----------|------------|


  EEH    Q    W            EEH    Q    W
 PM|                      PM|
|-----------|------------|-----------|------------|
|-----------|------------|-----------|------------|
|-----------|------------|-----------|------------|
|-22--------|------------|-----------|------------|
|-00--------|------------|-55--------|------------|
|-----------|------------|-33--------|------------|
|
| EEEEEEE E   EEEEE E EE   EEEEEEE E   EEEEE E EE
|-00--00----|---00----00-|-----------|------------|
|---88------|-88---------|---88------|-88---------|
|-----------|------------|-77--77----|---77----77-|
|-------1010|-----1010---|-------1010|-----1010---|
|-----------|------------|-----------|------------|
|-----------|------------|-----------|------------|


  EEEEEE E    EEEEE E EE   EEEEEEE E   EEEEE E EE  
 PM-----------------------------SLIGHTLY-RELEASE--|
|-----------|------------|-----------|------------||
|-----------|------------|-----------|------------||
|-----------|------------|-----------|------------||
|-----------|------------|-----------|-----3-3-33-||
|-3333333-3-|-33333-3-33-|-333333--3-|-33333-3-33-||
|-0000000-0-|-00000-0-00-|-1111111-1-|-11111-1-11-||
|
| EEEEEEE E   EEEEE E EE   EEEEEEE E   EEEEE E EE
|-00--00----|---00----00-|-----------|------------||
|---88------|-88---------|---88------|-88---------||
|-----------|------------|-77--77----|---77----77-||
|-------1010|-----1010---|-------1010|-----1010---||
|-----------|------------|-----------|------------||
|-----------|------------|-----------|------------||


Interlude (Measures returned to normal width)

  E E E E E E E E   E E E E E E E E   E E E E E E E E
|-----------------|-----------------|-----------------|
|-----------------|-----------------|-----------------|
|-----------------|-----------------|-----------------|
|-----------------|-----------------|-----------------|
|-------3-3-3-3---|-------5-5-5-5---|-------3-3-3-3-3-|
|-1-1-1---------1/|=3-3-3---------3\|=1-1-1---------1-|


  Q   H       Q
|---------------||
|---------------||
|---------------||
|-5\------------||
|-5\------------||
|-3\------------||
|
| H       E E Q
|---------------||
|---------------||
|-------12/14\12||
|--------x/=x\=x||
|-------10/12\10||
|---------------||

(Repeat Chorus w/o Repeat Sign)
(Play one more Chorus w/o Repeat sign [Gtr I plays straight Eighth Notes])

Outro

  E E E E E E E E   E E E E E E E E   E E E E E E E E
|-----------------|-----------------|-----------------|
|-----------------|-----------------|-----------------|
|-----------------|---2-2-2-2-2-----|-------------5-5-|
|-3-3-3-5-5-5-2-2-|-2-2-2-2-2-2-5-5-|-3-3-3-5-5-5-5-5-|
|-3-3-3-5-5-5-2-2-|-2-0-0-0-0-0-5-5-|-3-3-3-5-5-5-3-3-|
|-1-1-1-3-3-3-0-0-|-0-----------3-3-|-1-1-1-3-3-3-----|


  E E E E E E E E
|-----------------|
|-----------------|
|-----------------|
|-5-5-5-5-5-5-5-5-|
|-5-5-5-5-5-5-5-5-|
|-3-3-3-3-3-3-3-3-|
|-----------------|


  E E E E E E E E   E E E E E E E E   E E E E E E E E
|-----------------|-----------------|-----------------|
|-----------------|-----------------|-----------------|
|-----------------|---2-2-2-2-2-----|-------------5-5-|
|-3-3-3-5-5-5-2-2-|-2-2-2-2-2-2-5-5-|-3-3-3-5-5-5-5-5-|
|-3-3-3-5-5-5-2-2-|-2-0-0-0-0-0-5-5-|-3-3-3-5-5-5-3-3-|
|-1-1-1-3-3-3-0-0-|-0-----------3-3-|-1-1-1-3-3-3-----|
|
| q   q   q   q     q   q   Q   Q     Q.    Q.    Q
|-----------------|-----------------|-----------------|
|-----------------|-----------------|-----------------|
|-12--12--12--12--|-12--9---7---4---|-5-----7-----12--|
|-x---x---x---x---|-x---x---x---x---|-x-----x-----x---|
|-10--10--10--10--|-10--7---5---2---|-3-----5-----10--|
|-----------------|-----------------|-----------------|
|
|-----------------|-----------------|-----------------|
|-13--13--13--13--|-13--10----------|-------------13--|
|-----------------|---------12--9---|-10----12--------|
|-----------------|-----------------|-----------------|
|-----------------|-----------------|-----------------|
|-----------------|-----------------|-----------------|


 +W
|-------||
|-------||
|-------||
|(5)----||
|(5)----||
|(3)----||
|-------||
|
|-------||
|-------||
|(12)---||
|(x-)---||
|(10)---||
|-------||
|
|-------||
|(13)---||
|-------||
|-------||
|-------||
|-------||

*Ring Out

And thats it!
Suggest correction
What's this?
You can suggest a correction to this tab. Community and Mods will review your correction and vote to approve or reject it.
comments
print report bad tab
11 comments total. Showing first comments.
+1 reply
Aurigo 1,178 wrote on March 7 2009, 06:01 am

Nice job man, you should use this and make it into a guitar pro file.

0 reply
Sam Rulez D00d 1,831 wrote on March 7 2009, 11:50 am

thanks, im getting guitar pro for my birthday so ill probably do that.

+1 reply
JessicaGonzo 1,128 wrote on March 8 2009, 12:13 am

Sam, just download tux guitar for free. its basically the same exact thing.

guest
You may want to rate the tab now too:
select rating
Please do not post tabs as comments. Select "correction" instead!