Oops, an error
Loading. Please wait.

The Irony Of Choking On A Lifesaver Tab

version 1
version 1

Whole song

10,051 views 21 this week
3 commentsread comments
1 2 3 4 5
x 11
add to favorites
×
Save as Personal and add changes to this tab that will be seen only by you. Learn more ›
×
You can save this tab as Personal to edit and correct it or add notes. All changes will be seen only by you. Learn more »
save as personal
new!
launch autoscroll
font size
0
reset
how to read this tab
guitar tuner
Autoscroll
slow
fast
+/-
esc
set tempo
stop
Author
Difficulty
Tuning: EADGbe

[Intro]
(Guitar 1) 
(x2)
e|--14---------14-------------------------14---------14----------------------|
B|-------11---------11---------12/11\12--------11--------11------------------|
G|----------11---------11-------------------------11--------11--16/15\16-----|
D|---------------------------------------------------------------------------|
A|---------------------------------------------------------------------------|
E|---------------------------------------------------------------------------|

(Guitar 2) 
(x2)
e|-----------------------------------------------------------------------------------|
B|-----------------------------------------------------------------------------------|
G|--------------4-3-4--------------4-3-4----8-8--8--8--4-3-4---8-8--8--8--4-3--------|
D|---4-4--4--4--4-3-4---4-4--4--4--4-3-4----8-8--8--8--4-3-4---8-8--8--8--4-3--------|
A|---4-4--4--4--2-1-2---4-4--4--4--2-1-2----6-6--6--6--2-1-2---6-6--6--6--2-1--------|
E|---2-2--2--2----------2-2--2--2----------------------------------------------------|

[Verse 1]
(Guitar 1) 
(Silent)

(Guitar 2)
e|------------------------------------------------------------------------------|
B|------------------------------------------------------------------------------|
G|------------4-3-4------------8---------4-3-4----------------------------------|
D|--4---------4-3-4---(x2)-----8---------4-3-4---(x2)---------------------------|
A|--4---------2-1-2------------6---------2-1-2----------------------------------|
E|--2---------------------------------------------------------------------------|

[Pre-Chorus]
(Both Guitars)
e|------------------------------------------------------------------------------|
B|------------------------------------------------------------------------------|
G|------------------------------------------------------------------------------|
D|------11-------------9--------------------------------------------------------|
A|------11-------------9--------------------------------------------------------|
E|------9--------------7--------------------------------------------------------|

[Chorus]
(Guitar 1) 
(x2)
e|--14---------14-------------------------14---------14----------------------|
B|-------11---------11---------12/11\12--------11--------11------------------|
G|----------11---------11-------------------------11--------11--16/15\16-----|
D|---------------------------------------------------------------------------|
A|---------------------------------------------------------------------------|
E|---------------------------------------------------------------------------|

(Guitar 2) 
(x2)
e|-----------------------------------------------------------------------------------|
B|-----------------------------------------------------------------------------------|
G|--------------4-3-4--------------4-3-4----8-8--8--8--4-3-4---8-8--8--8--4-3-4------|
D|---4-4--4--4--4-3-4---4-4--4--4--4-3-4----8-8--8--8--4-3-4---8-8--8--8--4-3-4------|
A|---4-4--4--4--2-1-2---4-4--4--4--2-1-2----6-6--6--6--2-1-2---6-6--6--6--2-1-2------|
E|---2-2--2--2----------2-2--2--2----------------------------------------------------|

[Post-Chorus]
(Guitar 1) 
(Silent)

(Guitar 2)
e|-------------|
B|-------------|
G|----8--------|
D|----8--------|
A|----6--------|
E|-------------|

[Interlude]
(Guitar 1) 
(x2)
e|--14---------14-------------------------14---------14----------------------|
B|-------11---------11---------12/11\12--------11--------11------------------|
G|----------11---------11-------------------------11--------11--16/15\16-----|
D|---------------------------------------------------------------------------|
A|---------------------------------------------------------------------------|
E|---------------------------------------------------------------------------|

(Guitar 2)
(x2)
e|-----------------------------------------------------------------------------------|
B|-----------------------------------------------------------------------------------|
G|---------------4-3-4--------------4-3-4----8-8--8--8--4-3-4---8-8--8--8--4-3-------|
D|---4-4--4--4--4-3-4---4-4--4--4--4-3-4----8-8--8--8--4-3-4---8-8--8--8--4-3--------|
A|---4-4--4--4--2-1-2---4-4--4--4--2-1-2----6-6--6--6--2-1-2---6-6--6--6--2-1--------|
E|---2-2--2--2----------2-2--2--2----------------------------------------------------|

[Verse 2]
(Guitar 1) 
(Silent)

(Guitar 2)
e|----------------------------------------------------------------------------------|
B|----------------------------------------------------------------------------------|
G|------------4-3-4------------8---------4-3-4--------------------------------------|
D|--4---------4-3-4---(x2)-----8---------4-3-4---(x2)-------------------------------|
A|--4---------2-1-2------------6---------2-1-2--------------------------------------|
E|--2-------------------------------------------------------------------------------|

[Pre-Chorus]
(Both Guitars)
e|------------------------------------------------------------------------------|
B|------------------------------------------------------------------------------|
G|------------------------------------------------------------------------------|
D|------11--------------9-------------------------------------------------------|
A|------11--------------9-------------------------------------------------------|
E|------9---------------7-------------------------------------------------------|

[Chorus]
(Guitar 1) 
(x2)
e|--14---------14-------------------------14---------14----------------------|
B|-------11---------11---------12/11\12--------11--------11------------------|
G|----------11---------11-------------------------11--------11--16/15\16-----|
D|---------------------------------------------------------------------------|
A|---------------------------------------------------------------------------|
E|---------------------------------------------------------------------------|

(Guitar 2) 
(x2)
e|-----------------------------------------------------------------------------------|
B|-----------------------------------------------------------------------------------|
G|--------------4-3-4--------------4-3-4----8-8--8--8--4-3-4---8-8--8--8--4-3-4------|
D|---4-4--4--4--4-3-4---4-4--4--4--4-3-4----8-8--8--8--4-3-4---8-8--8--8--4-3-4------|
A|---4-4--4--4--2-1-2---4-4--4--4--2-1-2----6-6--6--6--2-1-2---6-6--6--6--2-1-2------|
E|---2-2--2--2----------2-2--2--2----------------------------------------------------|

[Post-Chorus]
(Guitar 1) 
(Silent)

(Guitar 2)
e|-------------|
B|-------------|
G|----8--------|
D|----8--------|
A|----6--------|
E|-------------|

[Interlude]
(Guitar 1 is Silent)
e|-----------------------------------------------------------------------------------|
B|-----------------------------------------------------------------------------------|
G|--------------4-3-4--------------4-3-4----8-8--8--8--4-3-4---8-8--8--8--4-3--------|
D|---4-4--4--4--4-3-4---4-4--4--4--4-3-4----8-8--8--8--4-3-4---8-8--8--8--4-3--------|
A|---4-4--4--4--2-1-2---4-4--4--4--2-1-2----6-6--6--6--2-1-2---6-6--6--6--2-1--------|
E|---2-2--2--2----------2-2--2--2----------------------------------------------------|

[Bridge]
(Just play chords)
F#                              D#m
Why can't you just be happy for me?

I'll never be good enough no, I'll never be good enough
F#                              D#m
Why can't you just be happy for me?

I'll never be good enough no, I'll never be good enough

[Pre-Chorus]
(Both Guitars)
e|------------------------------------------------------------------------------|
B|------------------------------------------------------------------------------|
G|------------------------------------------------------------------------------|
D|------11--------------9-------------------------------------------------------|
A|------11--------------9-------------------------------------------------------|
E|------9---------------7-------------------------------------------------------|

[Chorus]
(Guitar 1) 
(x2)
e|--14---------14-------------------------14---------14----------------------|
B|-------11---------11---------12/11\12--------11--------11------------------|
G|----------11---------11-------------------------11--------11--16/15\16-----|
D|---------------------------------------------------------------------------|
A|---------------------------------------------------------------------------|
E|---------------------------------------------------------------------------|

(Guitar 2) 
(x2)
e|-----------------------------------------------------------------------------------|
B|-----------------------------------------------------------------------------------|
G|--------------4-3-4--------------4-3-4----8-8--8--8--4-3-4---8-8--8--8--4-3-4------|
D|---4-4--4--4--4-3-4---4-4--4--4--4-3-4----8-8--8--8--4-3-4---8-8--8--8--4-3-4------|
A|---4-4--4--4--2-1-2---4-4--4--4--2-1-2----6-6--6--6--2-1-2---6-6--6--6--2-1-2------|
E|---2-2--2--2----------2-2--2--2----------------------------------------------------|

[Post-Chorus]
(Guitar 1) 
(Silent)

(Guitar 2)
e|-------------|
B|-------------|
G|----8--------|
D|----8--------|
A|----6--------|
E|-------------|

[Outro]
(Guitar 2) 
(x2)
e|-----------------------------------------------------------------------------------|
B|-----------------------------------------------------------------------------------|
G|--------------4-3-4--------------4-3-4----8-8--8--8--4-3-4---8-8--8--8--4-3-4------|
D|---4-4--4--4--4-3-4---4-4--4--4--4-3-4----8-8--8--8--4-3-4---8-8--8--8--4-3-4------|
A|---4-4--4--4--2-1-2---4-4--4--4--2-1-2----6-6--6--6--2-1-2---6-6--6--6--2-1-2------|
E|---2-2--2--2----------2-2--2--2----------------------------------------------------|



************************************

| /  Slide up
| \  Slide down 

************************************
Suggest correction
comments
print report bad tab
3 comments total.
0 reply
PhAntomNewo64 106 Oct 19, 2013 07:37 AM

Just been updated to be more accurate

-1 reply
murdoc562 83 Jan 28, 2015 09:13 PM

The tones simply aren't accurate and require different variations than the repetitive sequence they currently have, which is clearly audible in the song. A new version of the tab demonstrates it better than this one.

0 reply
futurehearts 21 Jun 30, 2015 02:12 PM

The beginning should be more like this:

e|--14---------14-------------------------14---------14----------------------|
B|-------11---------11---------12/11\12--------11--------11------------------|
G|----------11---------11-------------------------11--------11--13/11\13-----|
D|---------------------------------------------------------------------------|
A|---------------------------------------------------------------------------|
E|---------------------------------------------------------------------------|

Then repeat that, except when you get to the 13/11\13 part, play 15/13 on the 3rd string instead (or 11/9 on the 2nd string if that's easier).

guest
You may want to rate the tab now too:
select rating
Wanna post a correction for this tab? Suggest correction