Oops, an error
Loading. Please wait.

The Reckless And The Brave Bass Tab

version 1
version 1

Whole song

Interactive

4,175 views 3 this week
1 commentread comment
1 2 3 4 5
accurate
x 3
add to favorites
launch autoscroll
font size
0
reset
guitar tuner
Autoscroll
slow
fast
+/-
esc
set tempo
stop
Help us to improve Ultimate-Guitar.com Take our survey!
×
Author
Tuning
D# G# C# F# A# D#
Check out my bass cover of this song:
http://www.youtube.com/watch?v=Ei7oLviBWds&feature=channel&list=UL

Intro (0:12):
Gb:-----------------------------------------------------------------------|
Db:-----------------------------------------------------------------------|
Ab:-5-555-555-57-45---------------------------------------------------5\--|
Eb:-----------------5-555-555-57-5-4-7-777-777-79-9-7-05-555-55-55-555----|

Verse (0:36):
Gb:-----------------------------------------------------------------------|
Db:-----------------------------------------------------------------------|
Ab:--5555555555557744-----------------------------------------------------|
Eb:------------------5555555555557755-777777777799775577-5555555555555555-|

Chorus x2(0:49):
Gb:-----------------------------------------------------------------------|
Db:--------------------------------------------------------------797-7----|
Ab:-5-555-555-57-45--------------------------------------------79---9-9---|
Eb:-----------------5-555-555-57-5-4-7-777-777-79-9-7-05-5-5555-----------|

PreVerse (1:12)
Gb:-------|
Db:-------|
Ab:-5~----|
Eb:-------|

Verse 2 x2 (1:15):
Gb:-----------------------------------------------------------------------|
Db:-----------------------------------------------------------------------|
Ab:--5555555555557744-----------------------------------------------------|
Eb:------------------5555555555557755-777777777799775577-5555555555555555-|

Chorus x2(1:39):
Gb:-----------------------------------------------------------------------|
Db:--------------------------------------------------------------797-7----|
Ab:-5-555-555-57-45--------------------------------------------79---9-9---|
Eb:-----------------5-555-555-57-5-4-7-777-777-79-9-7-05-5-5555-----------|

Bridge (2:03):
Gb:--------------------------------------|--------------------------------|
Db:------------------------------------o-|--------------------------------|
Ab:------------------------------------o-|--------------------------------|
Eb:-77777777-55555555-3333333333333333---|-33-3-33-3-3333-55-5-55-5-5555--|

Modified Chorus (2:18):
Gb:---------------------------------------------------|
Db:---------------------------------------------------|
Ab:-5~-5-7-45-----------------------------------------|
Eb:----------5~-7-5-47~-79-9-7-05-5555555555555555\---|

Chorus x2(2:30):
Gb:-----------------------------------------------------------------------|
Db:--------------------------------------------------------------797-7----|
Ab:-5-555-555-57-45--------------------------------------------79---9-9---|
Eb:-----------------5-555-555-57-5-4-7-777-777-79-9-7-05-5-5555-----------|


Outro (2:54):
Gb:----------------------------------------------------------|
Db:----------------------------------------------------------|
Ab:-5-555-555-57-45------------------------------------------|
Eb:-----------------5-555-555-57-5-4-7-777-777-79-9-7-05~----|
Suggest correction
Give kudos to tab author, rate the tab!
1 2 3 4 5
comments
print report bad tab
1 comment total.
0 reply
Lobassopalypse 20 wrote on June 4 2012, 03:14 pm

Why would you put this in Eb? The lowest note is an F#, they've obviously played it in standard tuning.

guest
You may want to rate the tab now too:
select rating
Wanna post a correction for this tab? Suggest correction