Oops, an error
Loading. Please wait.

The Reckless And The Brave Tab

version 1
version 1

Whole song

Interactive

10,907 views 18 this week
2 commentsread comments
1 2 3 4 5
accurate
x 4
add to favorites
launch autoscroll
font size
0
reset
how to read this tab
guitar tuner
Autoscroll
slow
fast
+/-
esc
set tempo
stop
Help us to improve Ultimate-Guitar.com Take our survey!
×
Difficulty
Tuning
intermediate
D A D G B E
-------------------------------------------------------------------------------
                             THE RECKLESS AND THE BRAVE - ALL TIME LOW
-------------------------------------------------------------------------------
Tabbed by: CyberntlyX

This is my first ever tab. I felt that i should just put it up even though it's
not really good, but there's no other tabs for now

INTRO

E|----------------------------------------------------------------------------------|
B|----------------------------------------------------------------------------------|
G|---10---8---10---10---8---10---11---10---8-------8---6---8---8---6---8---10---8---|
D|----------------------------------------------------------------------------------|
A|----------------------------------------------------------------------------------|
E|----------------------------------------------------------------------------------|

E|----------------------------------------|
B|----------------------------------------|
G|---6---5---6---6---5---6---9---10---8---|
D|----------------------------------------|
A|----------------------------------------|
E|----------------------------------------|

VERSE (Both Verses)
(Comes in the second part)

E|--------------------------------------------------------|
B|--------------------------------------------------------|
G|--------------------------------------------------------|
D|---6---6---6---6---8---8---8---8---8---6---6---6---6----|
A|---4---4---4---4---6---6---6---8---8---6---6---6---6----|
E|-------------------------------8---8---6---6---6---6----|
     *   *   *   *   *   *   *   *   *   *   *   *   *

E|-----------------------------------------------------|
B|-----------------------------------------------------|
G|-----------------------------------------------------|
D|--8---8---6---6---4---4---4---4---3------3---4---6---|
A|--8---8---6---6---4---4---4---4---3------3---4---6---|
E|--8---8---6---6---4---4---4---4---3------3---4---6---|
    *   *   *   *   *   *   *   *   *




CHORUS (Both Choruses)

E|-----------------------------------------------|
B|-----------------------------------------------|
G|-----------------------------------------------|
D|---6---8---8---6---8---6---4---0---3---4---6---|
A|---4---6---8---6---8---6---4---0---3---4---6---|
E|-----------8---6---8---6---4---0---3---4---6---|

SOLO

E|----------------------------------------|
B|-------9---7---6-------9---7---11-------|
G|---6---------------6--------------------|
D|----------------------------------------|
A|----------------------------------------|
E|----------------------------------------|



E|-----------------------------------|
B|-----------9---9---7---7---6---6---|
G|---6---6---------------------------|
D|-----------------------------------|
A|-----------------------------------|
E|-----------------------------------|



E|----------------------------------------------|
B|---11---11---11---8---11---11---11---8---11---|
G|----------------------------------------------|
D|----------------------------------------------|
A|----------------------------------------------|
E|----------------------------------------------|



E|-----------------------------------------------|
B|-----------------------------------------------|
G|---15---15---15---11---15---15---15---11---15\-|
D|-----------------------------------------------|
A|-----------------------------------------------|
E|-----------------------------------------------|

AFTER SOLO

E|-------------------------------------------|
B|-------------------------------------------|
G|-------------------------------------------|
D|---8---8---6---8---6---4---3---4---6---6---|
A|---6---8---6---8---6---4---3---4---6---6---|
E|-------8---6---8---6---4---3---4---6---6---|

Then comes Chorus again.
Listen to the strumming pattern.

************************************
| *   Palm mute
| /   slide up
| \   slide down
| h   hammer-on
| p   pull-off
| ~   vibrato
| +   harmonic
| x   Mute note
| b   Bend
| pb  Pre-bend
| br  Bend release
| pbr Pre-bend release
| brb Bend release bend

************************************
Suggest correction
What's this?
You can suggest a correction to this tab. Community and Mods will review your correction and vote to approve or reject it.
comments
print report bad tab
2 comments total.
0 reply
harrisonatsix 607 wrote on June 26 2012, 01:20 pm

the beginning is most definitely octave chords not single notes

E|----------------------------------------------------------------------------------|
B|----------------------------------------------------------------------------------|
G|---10---8---10---10---8---10---11---10---8-------8---6---8---8---6---8---10---8---|
D|----------------------------------------------------------------------------------|
A|---8----6---8-----8---6---8----9----8----6-------6---4---6---4---4---6---8----6---|
E|----------------------------------------------------------------------------------|

E|----------------------------------------|
B|----------------------------------------|
G|---6---5---6---6---5---6---9---10---8---|
D|----------------------------------------|
A|---4---3---4---4---3---4---7---8----6---|
E|----------------------------------------|

0 reply
Sparkysguitar01 137 wrote on July 27 2013, 08:08 am

atually the start is single notes, watching alex play it live is definitely notes :)

guest
You may want to rate the tab now too:
select rating
Please do not post tabs as comments. Select "correction" instead!