Oops, an error
Loading. Please wait.

The Reckless And The Brave Bass Tab

version 2
version 2

Whole song

Interactive

877 views 3 this week
no commentswrite comment
1 2 3 4 5
3 more votes to show rating
add to favorites
launch autoscroll
font size
0
reset
guitar tuner
Autoscroll
slow
fast
+/-
esc
set tempo
stop
Help us to improve Ultimate-Guitar.com Take our survey!
×
Author
Difficulty
intermediate
-----------------------------------------------------------------
Reckless And The Brave   -    All Time Low
-----------------------------------------------------------------

Tabbed By : CaptainPenguin, with the aid of Songster. The original tab has the tuning 
really high, but instead of that, I translated it so you can do this with standard tuning.

e-mail: radikoolz@hotmail.com

Tuning: Standard

Intro (0:12)

G|-----------------------------------------------------------------|
D|-----------------------------------------------------------------|
A|-9--9-9-9---9-9-9--11--------------------------------------------|
E|------------------------11----9----9-9-9---9-9-9----11--6--------|

G|-----------------------------------------------------------------|
D|-----------------------------------------------------------------|
A|-----------------------------------------------------------------|
E|-7--7-7-7---2-2-2---6--7--9--------------------------------------|

Verse (0:36)

G|-----------------------------------------------------------------|
D|-----------------------------------------------------------------|
A|-9-9-9-9-9-9-9-9-9-9-9--11-11------------------------------------|
E|---------------------------------11-11---------------------------|

G|-----------------------------------------------------------------|
D|-----------------------------------------------------------------|
A|-----------------------------------------------------------------|
E|-9-9-9-9-9-9-9-9-9-9-9--11-11---6-6------------------------------|

G|-----------------------------------------------------------------|
D|-----------------------------------------------------------------|
A|-----------------------------------------------------------------|
E|-7-7-7-7-7-7-7-7-2-2-2---6-6-7-7-9-9-9-9-9-9-9-9-9-9-9-9-9-9-----|

Chorus

G|-----------------------------------------------------------------|
D|-----------------------------------------------------------------|
A|-9--9-9-9---9-9-9--11--------------------------------------------|
E|------------------------11----9----9-9-9---9-9-9----11--6--------|

G|-----------------------------------------------------------------|
D|-----------------------------------------------------------------|
A|-----------------------------------------------------------------|
E|-7--7-7-7---2-2-2---6--7--9---9-9-9-9-9-9-9-9-9-9-9-9------------|

Verse

G|-----------------------------------------------------------------|
D|-----------------------------------------------------------------|
A|-9-9-9-9-9-9-9-9-9-9-9--11-11------------------------------------|
E|---------------------------------11-11---------------------------|

G|-----------------------------------------------------------------|
D|-----------------------------------------------------------------|
A|-----------------------------------------------------------------|
E|-9-9-9-9-9-9-9-9-9-9-9--11-11---6-6------------------------------|

G|-----------------------------------------------------------------|
D|-----------------------------------------------------------------|
A|-----------------------------------------------------------------|
E|-7-7-7-7-7-7-7-7-2-2-2---6-6-7-7-9-9-9-9-9-9-9-9-9-9-9-9-9-9-----|

Chorus

G|-----------------------------------------------------------------|
D|-----------------------------------------------------------------|
A|-9--9-9-9---9-9-9--11--------------------------------------------|
E|------------------------11----9----9-9-9---9-9-9----11--6--------|

G|-----------------------------------------------------------------|
D|-----------------------------------------------------------------|
A|-----------------------------------------------------------------|
E|-7--7-7-7---2-2-2---6--7--9---9-9-9-9-9-9-9-9-9-9-9-9------------|

Bridge (2:03)

G|-----------------------------------------------------------------|
D|-----------------------------------------------------------------|
A|-----------------------------------------------------------------|
E|-11--11---11-11-11-9-9-9-9-11-13--11-----------------------------|

G|-----------------------------------------------------------------|
D|-----------------------------------------------------------------|
A|-----------------------------------------------------------------|
E|-7---7-----7--7--7--9--9--9--7--9--9--9--------------------------|

G|-----------------------------------------------------------------|
D|-----------------------------------------------------------------|
A|-----------------------------------------------------------------|
E|-11--11----11-11-11--13-13-13-13---9-9------pause----------------|

Bridge Spamming 7 Part (2:12)

G|-----------------------------------------------------------------|
D|-----------------------------------------------------------------|
A|-----------------------------------------------------------------|
E|--7-7---7----7-7-7-7---7---7-7-7-7-------------------------------|

G|-----------------------------------------------------------------|
D|-----------------------------------------------------------------|
A|-----------------------------------------------------------------|
E|--7-7---7----7-7-7-7---7---7-7-7-7-------------------------------|

Chorus (2:18)

G|-----------------------------------------------------------------|
D|-----------------------------------------------------------------|
A|--11-----------------11------------------------------------------|
E|-------11---9~~----------6--7~~-------2--6-7-9~~-----------------|

Normal Chorus

G|-----------------------------------------------------------------|
D|-----------------------------------------------------------------|
A|-9--9-9-9---9-9-9--11--------------------------------------------|
E|------------------------11----9----9-9-9---9-9-9----11--6--------|

G|-----------------------------------------------------------------|
D|-----------------------------------------------------------------|
A|-----------------------------------------------------------------|
E|-7--7-7-7---2-2-2---6--7--9---9-9-9-9-9-9-9-9-9-9-9-9------------|

Outro

G|-----------------------------------------------------------------|
D|-----------------------------------------------------------------|
A|-9--9-9-9---9-9-9--11--------------------------------------------|
E|------------------------11----9----9-9-9---9-9-9----11--6--------|

G|-----------------------------------------------------------------|
D|-----------------------------------------------------------------|
A|-----------------------------------------------------------------|
E|-7--7-7-7---2-2-2---6--7--9--------------------------------------|


Hope you enjoyed :) All Time Low rocks!

| /  slide up
| \  slide down
| h  hammer-on
| p  pull-off
| ~  vibrato
| +  harmonic
| x  Mute note
Suggest correction
Give kudos to tab author, rate the tab!
1 2 3 4 5
comments
print report bad tab
guest
You may want to rate the tab now too:
select rating
Wanna post a correction for this tab? Suggest correction