Oops, an error
Loading. Please wait.

The Reckless And The Brave Tab

version 3
version 3

Whole song

Interactive

4,557 views 6 this week
no commentswrite comment
1 2 3 4 5
accurate
x 3
add to favorites
launch autoscroll
font size
0
reset
how to read this tab
guitar tuner
Tab Pro tools
  • play this tab
  • loop segment
  • change instrument
  • show fretboard
  • metronome
×
Best way to learn
"The Reckless And The Brave"
Autoscroll
slow
fast
+/-
esc
set tempo
stop
Contributor
Tuning
C# G# C# F# A# D#
The Reckless and the Brave - All Time Low

Tuning: Drop C#

Intro
D#|----------------------------------------------------------------------------------|
A#|----------------------------------------------------------------------------------|
F#|-11-9-11--11-9-11-12-11----9-7-9--9-7-9-11-9----7-6-7--7-6-7-10-11-9\\\-----------|
C#|----------------------------------------------------------------------------------|
G#|----------------------------------------------------------------------------------|
C#|----------------------------------------------------------------------------------|

Verse - first part no guitar then second part same as chorus except palm muted, then
D#|--------------------------------|
A#|--------------------------------|
F#|--------------------------------|
C#|-4--5--7--77777777777777--------|
G#|-4--5--7--77777777777777--------|
C#|-4--5--7--77777777777777--------|
             ........

Chorus
D#|------------------------------------------------------------|------|
A#|------------------------------------------------------------|------|
F#|-77777777-9-------------------------------------------------|------|
C#|-77777777-9-9-77777777-9-4-5-5555555-00-4-5-77777777--(x2)--|-5~---|
G#|-55555555-7-9-77777777-9-4-5-5555555-00-4-5-77777777--------|-5~---|
C#|------------9-77777777-9-4-5-5555555-00-4-5-77777777--------|-5~---|

Bridge
D#|--------------10---------------------------------------------------------------|
A#|----10--8--7------10--8--10-----10--8--77--88-8-88-8-88-1212-12-1212-12-12-----|
F#|-7---------------------------7-------------------------------------------------|
C#|-------------------------------------------------------------------------------|
G#|-------------------------------------------------------------------------------|
C#|-------------------------------------------------------------------------------|

D#|----------------------------------------|
A#|----------------------------------------|
F#|-9--------------------------------------|
C#|-9--9--7------9--4--5------00--4--5--7--|
G#|-7--9--7------9--4--5------00--4--5--7--|
C#|----9--7------9--4--5------00--4--5--7--|


Final chorus
D#|-------------------------------------------------------------------|
A#|-------------------------------------------------------------------|
F#|-77777777-9--------------------------------------------------------|
C#|-77777777-9-9-77777777-9-4-5-5555555-00-4-5-77777777---0--4--5--7--|
G#|-55555555-7-9-77777777-9-4-5-5555555-00-4-5-77777777---0--4--5--7--|
C#|------------9-77777777-9-4-5-5555555-00-4-5-77777777---0--4--5--7--|

D#|--------------------------------------------------------|
A#|--------------------------------------------------------|
F#|-77777777-9---------------------------------------------|
C#|-77777777-9-9-77777777-xxxx-5555555-00-4-5-77777777-----|
G#|-55555555-7-9-77777777-xxxx-5555555-00-4-5-77777777-----|
C#|------------9-77777777-xxxx-5555555-00-4-5-77777777-----|

Outro
D#|----------------------------------------------------------------------------------|
A#|----------------------------------------------------------------------------------|
F#|-11-9-11--11-9-11-12-11----9-7-9--9-7-9-11-9----7-6-7--7-6-7-10-11-9~-------------|
C#|----------------------------------------------------------------------------------|
G#|----------------------------------------------------------------------------------|
C#|----------------------------------------------------------------------------------|
comments
We did not receive enough feedback on this tab! Please rate:
print report bad tab
1 2 3 4 5
I want to post or [tab]
guest
You may want to rate the tab now too:
select rating
Please do not post tabs as comments. Select "correction" instead!