Oops, an error
Loading. Please wait.

The Reckless And The Brave tab

version 5
version 5

Whole song

Interactive

327 views 1 this week
no commentswrite comment
1 2 3 4 5
x 3
add to favorites
×
Save as Personal and add changes to this tab that will be seen only by you. Learn more ›
×
You can save this tab as Personal to edit and correct it or add notes. All changes will be seen only by you. Learn more »
launch autoscroll
font size
0
reset
how to read this tab
guitar tuner
edit
Autoscroll
slow
fast
+/-
esc
set tempo
stop
Author
Unregistered
DEAR MODERATOR




PLEASE DELETE THIS "TAB"






I MADE IT WHEN I WAS A TOTAL GUITAR NOOB AND ITS SO SHITTY



I STILL KINDA SUCK BUT NOT THAT MUCH COMPARED TO THE TIME I MADE THIS SHITTY TAB





THANK YOU MUTHAFUCKA
Verse 0.26-0.48 (optional)

e-------3---------3------------|
B--1---------1-----------------|
G------------2-----------------|
D--2---------2-----------------|           X2
A--3----2---------2------------|
E-------3---------3------------|
  X16  X16  X16  X16


Guitar 2 (kicks in at 0.37)

e-------------------------------------------|
B-------------------------------------------|
G-------------------------------------------|
D--3------------5------------7------------5-|
A--3------------5------------7------------5-|
E--3------------3------------5------------5-|
   *            *            *            *
  X16          X16          X16          X16


Chorus 0.49-1.15 = same as verse

Verse 1.16-1.28

Chorus 1.29-2.03

Bridge 2.04-2.17

e--------------------9-9--9-9--9-9--9-9\8/9--11-11--11-11--11-11--11-11\8-|
B--7~--9~--5~--7~----9-9--9-9--9-9--9-9\8/9--11-11--11-11--11-11--11-11\8-|
G--------------------8-8--8-8--8-8--8-8\7/8--10-10--10-10--10-10--10-10\7-|
D-------------------------------------------------------------------------|
A-------------------------------------------------------------------------|
E-------------------------------------------------------------------------|
        X3

2.18-2.29 Intro

2.30-2.54 Chorus

At 2.41

e--------|
B--------|
G--------|
D--------|
A--2-3-4-|
E--------|


At 2.47

e--------------|
B--------------|
G--------------|
D-0-0-2--0-0-2-|
A-0-0-2--0-0-2-|
E-0-0-2--0-0-2-|

            
            
Suggest correction
Creating personal tab
Creating personal tab
You can edit any tab online and save it as your Personal.

You can edit, replace or remove any tab part or add personal notes – all changes will be seen only by you.

Personal tabs can be accessed anytime from any device, even offline.
Learn more »
Give kudos to tab author, rate the tab!
1 2 3 4 5
comments
print report bad tab
guest
Wanna post a correction for this tab? Suggest correction