Oops, an error
Loading. Please wait.
We have an official Therapy tab made by UG professional guitarists. Check out the tab »
×
1,048 views 36 this week
no commentswrite comment
1 2 3 4 5
x 6
add to favorites
×
Save as Personal and add changes to this tab that will be seen only by you. Learn more ›
×
You can save this tab as Personal to edit and correct it or add notes. All changes will be seen only by you. Learn more »
launch autoscroll
font size
0
reset
transpose
0
reset
simplify chords
display chords
guitar tuner
edit
Autoscroll
slow
fast
+/-
esc
set tempo
stop
Author
Strumming
There is no strumming pattern for this song yet. and get +5 IQ
Uke intro for Therapy in key that makes the noodling easy..

[Intro]

 G                  C                  Em      D        C
A|----2h3p2-----0---|----2h3p2-----0---|----2-------2---|----2h3p2-----0---|
E|--3---------3---3-|--3---------3---3-|--3---3---3---3-|--3---------3---3-|
C|2-----------------|0-----------------|4-------2-------|0-----------------|
G|------------------|------------------|----------------|------------------|

 G                  C                  Em      D        C
A|----2h3p2-----0---|----2h3p2-----0---|----2-------2---|----2h3p2---------|
E|--3---------3---3-|--3---------3---3-|--3---3---3---3-|--3---------------|
C|2-----------------|0-----------------|4-------2-------|0-----------------|
G|------------------|------------------|----------------|------------------|


[Verse 1]

   G                   C
My ship went down in a sea of sound
       Em     D         C
When I woke up alone I had everything
  G                    C
A handful of moments I wished I could change
      Em           D            C
And a tongue like a nightmare that cut like a blade
     G                   C
In a city of fools I was careful and cool
         Em      D          C
But they tore me apart like a hurricane
  G
A handful of moments 
  C                             Em  D   C
I wish I could change but I was carried away


[Chorus]

         G
Give me therapy
      D            Em
I'm a walking travesty
        C
But I'm smiling at everything
G                 D                 Em
Therapy, you were never a friend to me
            C
And you can keep all your misery.


[Break]

 G                  C                  Em      D        C
A|----2h3p2-----0---|----2h3p2-----0---|----2-------2---|----2h3p2-----0---|
E|--3---------3---3-|--3---------3---3-|--3---3---3---3-|--3---------3---3-|
C|2-----------------|0-----------------|4-------2-------|0-----------------|
G|------------------|------------------|----------------|------------------|

 G                  C                  Em      D        C
A|----2h3p2-----0---|----2h3p2-----0---|----2-------2---|----2h3p2---------|
E|--3---------3---3-|--3---------3---3-|--3---3---3---3-|--3---------------|
C|2-----------------|0-----------------|4-------2-------|0-----------------|
G|------------------|------------------|----------------|------------------|


[Verse 2]

   G
My lungs gave out
     C
As I faced the crowd
             Em          D           C               
I think that keeping this up could be dangerous
    G
I'm flesh and bone
       C
I'm a rolling stone
        Em      D         C
and the experts say I'm delirious


[Chorus]

         G
Give me therapy
      D            Em
I'm a walking travesty
        C
But I'm smiling at everything
G                 D                 Em
Therapy, you were never a friend to me
            C
And you can take back your misery


[Bridge]

Am                     G
Arrogant boy, love yourself so no one has to
        D
They're better off without you
         D4             D
(They're better off without you)
Am                    G
Arrogant boy, cause a scene like you're supposed to
        Em
They'll fall asleep without you
       C                       G
You're lucky if your memory remains


[Chorus]

         G
Give me therapy
      D            Em
I'm a walking travesty
        C
But I'm smiling at everything

G                 D                 Em
Therapy, you were never a friend to me
            C
And you can take back your misery
G
Therapy
      D            Em
I'm a walking travesty
        C
But I'm smiling at everything
G                 D                 Em
Therapy, you were never a friend to me
            C
And you can choke on your misery.


[Outro]

 G                  C                  Em      D        C
A|----2h3p2-----0---|----2h3p2-----0---|----2-------2---|----2h3p2-----0---|
E|--3---------3---3-|--3---------3---3-|--3---3---3---3-|--3---------3---3-|
C|2-----------------|0-----------------|4-------2-------|0-----------------|
G|------------------|------------------|----------------|------------------|

 G                  C                  Em      D        C           G
A|----2h3p2-----0---|----2h3p2-----0---|----2-------2---|----2h3p2---2-----|
E|--3---------3---3-|--3---------3---3-|--3---3---3---3-|--3---------3-----|
C|2-----------------|0-----------------|4-------2-------|0-----------2-----|
G|------------------|------------------|----------------|------------------|



************************************

| h  Hammer-on
| p  Pull-off 

************************************

            
            
Suggest correction
Creating personal tab
Creating personal tab
You can edit any tab online and save it as your Personal.

You can edit, replace or remove any tab part or add personal notes – all changes will be seen only by you.

Personal tabs can be accessed anytime from any device, even offline.
Learn more »
comments
print report bad tab
guest
You may want to rate the tab now too:
select rating
Wanna post a correction for this tab? Suggest correction