Oops, an error
Loading. Please wait.

Therapy Tab

version 1
version 1

Live

Whole song

Interactive

4,228 views 3 this week
no commentswrite comment
1 2 3 4 5
please rate
add to favorites
launch autoscroll
font size
0
reset
how to read this tab
guitar tuner
Tab Pro tools
  • play this tab
  • loop segment
  • change instrument
  • show fretboard
  • metronome
×
Best way to learn
"Therapy"
Autoscroll
slow
fast
+/-
esc
set tempo
stop
Difficulty
intermediate
IMPORTANT:All Time Lows live tuning is 1/2 a step down from standard.



Intro/Verse 1 :

--------------------------------------------------------------------------|
---2h3-2---0-------2h3-2----------2----2-------2h3-2----0-----------------|
--2------2---2----2------2-4-2---2-2--2-2-----2-------2---2---------------|
----------------0---------------------------0-----------------------------|
-0------------------------------------------------------------------------|
--------------------------------2----0------------------------------------|

Pre chorus:
    F#m           E                        D
--2-------0----------2---------------------------------------------------------|
--2-------0----------3---------------------------------------------------------|
--2-------1----------2--let-it-ring---------------------- ---------------------|
--4-------2----------0---------------------------------------------------------|
--4-------2----------0---------------------------------------------------------|
--2----------------------------------------------------------------------------|

Chorus:

     A           E           F#m       D
--0-----0-----2-----2-----------------------------------------------------|
--2-----0-----2-----3-----------------------------------------------------|
--2-----1-----2-----2-----------------------------------------------------|
--2-----2-----4-----0-----------------------------------------------------|
--0-----2-----4-----0-----------------------------------------------------|
--------------2-----------------------------------------------------------|

Post Chorus:

--------------------------------------------------2--------------------------|
---2h3-2---0---------2h3-2--0-------2----2------3----------------------------|
--2------ 2--2------2------2---2---2-2--2--2---2-----------------------------|
----------------0----------------------------0-------------------------------|
-0---------------------------------------------------------------------------|
--------------------------------2----0---------------------------------------|

Verse 2:

(Guitar 1)
--------------------------------------------------------------------------|
---2h3-2--0---------2h3-2--0--------2----2-------2h3-2----0---------------|
--2------2--2------2------2--2-----2-2--2-2-----2-------2---2-------------|
----------------0---------------------------0-----------------------------|
-0------------------------------------------------------------------------|
--------------------------------2----0------------------------------------|


(Guitar 2)
     A           E          F#m        D
--0-----0-----2-----2-----------------------------------------------------|
--2-----0-----2-----3-----------------------------------------------------|
--2-----1-----2-----2-----------------------------------------------------|
--2-----2-----4-----0-----------------------------------------------------|
--0-----2-----4-----0-----------------------------------------------------|
--------------2-----------------------------------------------------------|

Chorus:
    A            E          F#m        D
--0-----0-----2-----2-----------------------------------------------------|
--2-----0-----2-----3-----------------------------------------------------|
--2-----1-----2-----2-----------------------------------------------------|
--2-----2-----4-----0-----------------------------------------------------|
--0-----2-----4-----0-----------------------------------------------------|
--------------2-----------------------------------------------------------|

Bridge:

    Bm           A              E
--2------0------0---------------------------------------------------------|
--3------2------0---------------------------------------------------------|
--4------2------1---------------------------------------------------------|
--4------2------2---------------------------------------------------------|
--2------0------2---------------------------------------------------------|
--------------------------------------------------------------------------|

    Bm           A          F#m          D           A
--2------0-----2------2-----0---------------------------------------------|
--3------2-----2------3-----2---------------------------------------------|
--4------2-----2------2-----2---------------------------------------------|
--4------2-----4------0-----2---------------------------------------------|
--2------0-----4------0-----0---------------------------------------------|
---------------2----------------------------------------------------------|

Chorus:

--0-----0-----2-----2-----------------------------------------------------|
--2-----0-----2-----3-----------------------------------------------------|
--2-----1-----2-----2-----------------------------------------------------|
--2-----2-----4-----0-----------------------------------------------------|
--0-----2-----4-----0-----------------------------------------------------|
--------------2-----------------------------------------------------------|

outro .

--------------------------------------------------2--------------------------|
---2h3-2---0---------2h3-2--0-------2----2------3----------------------------|
--2------ 2--2------2------2---2---2-2--2--2---2-----------------------------|
----------------0----------------------------0-------------------------------|
-0---------------------------------------------------------------------------|
--------------------------------2----0---------------------------------------|
comments
We did not receive enough feedback on this tab! Please rate:
print report bad tab
1 2 3 4 5
I want to post or [tab]
guest
You may want to rate the tab now too:
select rating
Please do not post tabs as comments. Select "correction" instead!