Oops, an error
Loading. Please wait.

Therapy Tab

version 2
version 2

Whole song

Interactive

261,412 views 399 this week
24 commentsread comments
1 2 3 4 5
excellent!
x 182
add to favorites
launch autoscroll
font size
0
reset
how to read this tab
guitar tuner
Tab Pro tools
  • play this tab
  • loop segment
  • change instrument
  • show fretboard
  • metronome
×
Best way to learn
"Therapy"
Autoscroll
slow
fast
+/-
esc
set tempo
stop
Artist:All Time Low

Song:Therapy

Album:Nothing Personal

Year:2009

okay , this is my first tab , so if you find any mistakes ,
email me : tanelparnsalu@hotmail.com .
this should be right though ..

standard tuning
standard key

intro : until 'but i was carried away'

--------------------------------------------------------------------------|
---2h3-2-----------2h3-2----------2----2-------2h3-2----------------------|
--2------2-4-2----2------2-4-2---2-2--2-2-----2-------2-4-2---------------|
----------------0---------------------------0-----------------------------|
-0------------------------------------------------------------------------|
--------------------------------2----0------------------------------------|

prechorus : until 'give me a therapy..'

--------------------------------------------------------------------------|
------2-------0------3----------------------------------------------------|
--2--2----1--1-1-----2--let-it-ring---------------------------------------|
--4-------2----------0----------------------------------------------------|
--4-------2----------0----------------------------------------------------|
--------------------------------------------------------------------------|

chorus .
these are just basic chords . ans some easy strumming . last D should ring ..

--0-----0-----2-----2-----------------------------------------------------|
--2-----0-----2-----3-----------------------------------------------------|
--2-----1-----2-----2-----------------------------------------------------|
--2-----2-----4-----0-----------------------------------------------------|
--0-----2-----4-----0-----------------------------------------------------|
--------------2-----------------------------------------------------------|


'you can keep all your misery'

second chorus is basically (a bit different) the same .

--------------------------------------------------------------------------|
---2h3-2-----------2h3-2----------2----2-------2h3-2----------------------|
--2------4-2------2------4-2-----2-2--2-2-----2-------2-4-2---------------|
----------------0---------------------------0-----------------------------|
-0------------------------------------------------------------------------|
--------------------------------2----0------------------------------------|

chorus ..
this is a bit different strumming , but you'll figure it out ..

--0-----0-----2-----2-----------------------------------------------------|
--2-----0-----2-----3-----------------------------------------------------|
--2-----1-----2-----2-----------------------------------------------------|
--2-----2-----4-----0-----------------------------------------------------|
--0-----2-----4-----0-----------------------------------------------------|
--------------2-----------------------------------------------------------|

bridge .
Arrogant boy, love yourself so no one has to
They're better off without you
(They're better off without you)

--2------0------0---------------------------------------------------------|
--3------2------0---------------------------------------------------------|
--4------2------1---------------------------------------------------------|
--4------2------2---------------------------------------------------------|
--2------0------2---------------------------------------------------------|
--------------------------------------------------------------------------|

Arrogant boy, cause a scene like you're supposed to
They'll fall asleep without you
You're lucky if your memory remains

--2------0-----2------0---------------------------------------------------|
--3------2-----2------0---------------------------------------------------|
--4------2-----2------1---------------------------------------------------|
--4------2-----4------2---------------------------------------------------|
--2------0-----4------2---------------------------------------------------|
---------------2----------------------------------------------------------|

chrous .

--0-----0-----2-----2-----------------------------------------------------|
--2-----0-----2-----3-----------------------------------------------------|
--2-----1-----2-----2-----------------------------------------------------|
--2-----2-----4-----0-----------------------------------------------------|
--0-----2-----4-----0-----------------------------------------------------|
--------------2-----------------------------------------------------------|

outro .

---------------------------------------------0----------------------------|
---2h3-2-----------2h3-2----------2----2-----3----------------------------|
--2------4-2------2------4-2-----2-2--2-2----2----------------------------|
----------------0----------------------------0----------------------------|
-0-------------------------------------------0----------------------------|
--------------------------------2----0------------------------------------|
comments
print report bad tab
24 comments total. Showing first comments.
+7 reply
musiclover4life wrote on July 11 2009, 12:43 am

PERFECT! thankyou thankyou thankyou!

+2 reply
n.q.n wrote on July 27 2009, 07:37 am

sounds great! thanks:)and all time low are the best!!

+2 reply
ljubavjelijepa wrote on August 3 2009, 04:12 pm

really good tab

I want to post or [tab]
guest
You may want to rate the tab now too:
select rating
Please do not post tabs as comments. Select "correction" instead!